Daleka Obala

Prve kapi jeseni

by:

Pronađi akord!

Ne znaš kako odsvirati neki od akorda pjesmi Prve kapi jeseni? Upiši akord u tražilicu i saznaj!

Traženi akord će se prikazati ovdje

Od istog izvođača

Pregledano 716 puta
Pregledano 25187 puta
Pregledano 29339 puta
Pregledano 10102 puta
Pregledano 11897 puta
Trebaš ritam za ovu pjesmu? Pronađi ga ovdje
Akordi/Tabovi:
        Daleka obala
     -prve kapi jeseni-


Uvod

E||--------5/7-5-----5---7--7h8--8--7--|
B||--5--8---------8--------------------|
G||------------------------------------|
D||------------------------------------|
A||------------------------------------|
E||------------------------------------|

                               
E||--------5/7-5-------5---5/3--|
B||--5--8----------8------------|
G||-----------------------------|
D||-----------------------------|
A||-----------------------------|
E||-----------------------------|

                             
E||------5---7/8/7--5/7/5------||
B||--8---------------------5~--||
G||----------------------------||
D||----------------------------||
A||----------------------------||
E||----------------------------||



Strofa>

Prve kapi         
Am     D          B    G
jeseni padaju niz lice leta.
Am           G                       
A mi noc smo ukrali
G                 C      B  Em
ovom svetu sto mu ljubav smeta.

Strofa>


Refren>

Am     D             G            C
I zato veruj sve sto nocas pricam ja,
Am     D           C      B
i zato veruj svaka rec je istina,
Am     D            G           C
i zato vjeruj mozda sutra lagat cu,
Am            B           Em
ali sada moje sve ti pripada.




Solo

   Am            D                 G                 C
E||--12r10------------------------------------------------|
B||--------------12h10---------8---12r10b12--12r10---8----|
G||--------------------------9-------------------------9--|
D||-----------------------12------------------------------|
A||-------------------------------------------------------|
E||-------------------------------------------------------|

                    Am            D   
E||---------7/8/7-----------7--8---------------|
B||----8-10---------10------------12/13/12-----|
G||--9-------------------------------------14--|
D||--------------------------------------------|
A||--------------------------------------------|
E||--------------------------------------------|

   C                                   B     
E||--------12-10-------12-10-------------------10-12----------------|
B||--------------12----------12----12-------12-------12-10----------|
G||--14-14----------14----------14----14-12----------------12-12-9--|
D||-----------------------------------------------------------------|
A||-----------------------------------------------------------------|
E||-----------------------------------------------------------------|

   Am              D              G                    C 
E||------8--------------8----7----7/8/7--5--5b7-5b7-5-------|
B||--8-------8--7--8-----------------------------------8h5--|
G||---------------------------------------------------------|
D||---------------------------------------------------------|
A||---------------------------------------------------------|
E||---------------------------------------------------------|

                    Am                             
E||---------7/8/7-----------7--8---------------|
B||----8-10---------10------------12/13/12-----|
G||--9-------------------------------------14--|
D||--------------------------------------------|
A||--------------------------------------------|
E||--------------------------------------------|

za ovaj deo ne garantujem tacnost posto ga jedva cujem!     
   B                                                      Em
E||--13b15~--15-----------------------------------------------||
B||-------------17-15h17h15----15-10h12h10----12--------------||
G||-------------------------16-------------14----14-12-14-----||
D||-------------------------------------------------------14--||
A||-----------------------------------------------------------||
E||-----------------------------------------------------------||
Komentari
Još nema komentara