Alien Ant Farm

Ss Recognize

by:

Pronađi akord!

Ne znaš kako odsvirati neki od akorda pjesmi Ss Recognize? Upiši akord u tražilicu i saznaj!

Traženi akord će se prikazati ovdje

Od istog izvođača

Pregledano 1732 puta
Pregledano 2022 puta
Pregledano 1724 puta
Pregledano 1814 puta
Pregledano 1736 puta
Trebaš ritam za ovu pjesmu? Pronađi ga ovdje
Akordi/Tabovi:
Standard Tuning (Eadgbe)

Intro:[palm muted]
e|------------------|
b|------------------|
g|------------------|
d|-5-5-6-3-4-4-8-7--|
a|-3-5-4-1-2-4-6-5--|
E|-3-3-4-1-2-2-6-5--|

Riff 2/Chorus:[distorted] don't know about strumming
e|-----------------------------------------------|
b|-----------------------------------------------|
g|---------5-5-5-5-5-5---------------------------|
d|-4-4-4-4-4-4-4-4-4-4-9-9-9-11-11---------------|
a|-4-4-4-4-3-3-3-3-3-3-7-7-7-9--9--7-7-7-7-7-7-7-|
E|-2-2-2-2-------------7-7-7-9--9--7-9-9-9-9-9-9-|


Variation in verse 2

e|------------------------------------------------|
b|--0-0-0-----------------------------------------|
g|--0-0-0-----------------------------------------|
d|-4-4-4-4----9-9-9-11-11-------------------------|
a|-4-4-4-4----7-7-7-9--9--7-7-7-7-7-7-7-----------|
E|-2-2-2-2----7-7-7-9--9--7-9-9-9-9-9-9-----------|

Bridge Into Chorus:
e|------------------|
b|------------------|
g|------------------|
d|-10---------------|
a|-7----hold--------|
E|-8----------------|

Riff 3: First
e|----------------------------|
b|----------------------------|
g|----------------------------|
d|----------------------------|
a|-----5-----7-6---------3----|
E|-5-6---6-5-----6-5-3-5------|

Second Play once normal then pm

e|----------------------------|
b|----------------------------|
g|----------------------------|
d|----------------------------|
a|-----5-----7-6---------3-5--|
E|-5-6---6-5-----6-5-3-5------|

Last part of riff 3

e|--------------------------|
b|--------------------------|
g|--------------------------|
d|--------------------------|
a|-----5-----7-6-7-6-----3--|
E|-5-6---6-5---------3-5----|

Riff 4:
e|------------------|
b|------------------|
g|------------------|
d|-77777--8-88------|
a|-77777--6-66------|
E|-55555--6-66------|


Riff 5: dist. with flanger
e|-0---------------------------------------|
b|-0---------------------------------------|
g|-0-----------12-11-14-12-17-16-----------|
d|-2----hold---11-10-13-11-16-15-----------|
a|-2-----------10-9--12-10-15-14-----------|
E|-0---------------------------------------|

End of bridge leading into final chorus


e|---------------0---|
b|---------------0---|
g|---------------0---|
d|-5-5-6-3-4-4-2-2---|
a|-3-5-4-1-2-4-2-----|
E|-3-3-4-1-2-2-0-----|

“don’t you, don’t you, don’t you…” x2
strumming not shown


e|----------------------------------------------|
b|----------------------------------------------|
g|-6------9-----11----6---9----12---------------|
d|-x------x-----x-----x---x----x----------------|
a|-4------7-----9-----4---7----10---------------|
E|----------------------------------------------|


End (7) harmonics let ring at end
e|--------------------------------------------|
b|-------------------(7)----------------------|
g|-6---12-----11---9—(7)----------------------|
d|-x---x------x----x--------------------------|
a|-4---10-----9----7--------------------------|
E|--------------------------------------------|
Komentari
Još nema komentara