Željko Bebek

Kucka nevjerna

by: mrazzorband

Pronađi akord!

Ne znaš kako odsvirati neki od akorda pjesmi Kucka nevjerna? Upiši akord u tražilicu i saznaj!

Traženi akord će se prikazati ovdje

Od istog izvođača

Pregledano 20761 puta
Pregledano 6525 puta
Pregledano 29510 puta
Pregledano 3953 puta
Pregledano 43050 puta
Trebaš ritam za ovu pjesmu? Pronađi ga ovdje
Akordi/Tabovi:
Cm                      B
Pogled hladan usne kao med
B                      Cm
u njoj zivi i vatra i led
Cm                       B
ko je ne zna skupo platice
B                       Cm
citav zivot za njom patice

ref.
B
Postelja njena vrela je
Cm
al dusa sjeverna
B
ona ce uvjek ostati
Cm
kucka nevjerna
Cm                    B
Ej da mogu vratiti je ja
B                    Cm
varo bi je ispod prozora
Cm                   B
pa da vidi kako boli to
B                   Cm
kako boli laz i nevjera

ref.

e|------------------------------------------------------------------------------------------------|
B|------10-12----10-12-10----10-10-12-13-10-12-13-12-10--10-12-10------10-------------------------|
G|12-12------12------------12-------------------------------------12-12--12-----------------------|
D|------------------------------------------------------------------------------------------------|
A|------------------------------------------------------------------------------------------------|
E|------------------------------------------------------------------------------------------------|
Download: Kucka nevjerna
Veličina: kb, Preuzeto 191 puta
Komentari

LoLa kaže:

Akordi/Tabovi:
         Bb
Postelja njena vrela je
              Cm
al dusa sjeverna
       Bb
ona ce uvjek ostati
            Cm
kucka nevjerna

06-05-2011 14:19

mrazzorband kaže:

e|-----------------------------------------------------------------------|
B|------10-12---10-12-10--10-10-12-13-10-12-13-12-10------10-12-10----10-|
G|12-12------12---------12--------------------------12-12----------12----|
D|-----------------------------------------------------------------------|
A|-----------------------------------------------------------------------|
E|-----------------------------------------------------------------------|

ceo solo...

12-05-2011 23:51