ZADNJE NA FORUMU
  • Turski Marš - Sastavljen iz vise djelova

    Komentirao: truli45

    Datum: 19-10 14:05

    Odgovora: 3

    Pogleda: 67

  • *Blic pitanja*

    Komentirao: Glam Boogie

    Datum: 19-10 13:20

    Odgovora: 3934

    Pogleda: 444590

  • Relax don do it...

    Komentirao: Glam Boogie

    Datum: 19-10 13:14

    Odgovora: 4606

    Pogleda: 666150

  • David Gilmour

    Komentirao: Glam Boogie

    Datum: 18-10 13:36

    Odgovora: 987

    Pogleda: 201518

  • 07. Vjezbe sinkronizacije

    • Datum:   25-08-2007 21:07
    • Autor:   SyN
    • Ispiši   Stranicu
    VJEZBE ZA SINKRONIZACIJU

    Akordi/Tabovi:
    1.

    e -----------------------------------------------------9-10-11-12
    H -------------------------------------------9-10-11-12----------
    G ---------------------------------9-10-11-12--------------------
    D -----------------------9-10-11-12------------------------------
    A -------------9-10-11-12----------------------------------------
    E --9-10-11-12---------------------------------------------------

    2.

    e --------------------------------------5-6-7-8
    H -------------------------------5-6-7-8-------
    G ------------------------5-6-7-8--------------
    D -----------------5-6-7-8---------------------
    A ----------5-6-7-8----------------------------
    E --5-6-7-8------------------------------------

    3.

    e --15-13-12---------------------------------------------------------------
    H -----------15-13-12-15-13-12---------------------------------------------
    G ----------------------------15-13-12-------------------------------------
    D --------------------------------------15-13-12-15-13-12------------------
    A --------------------------------------------------------15-13-12---------
    E -----------------------------------------------------------------15-13-12

    4.

    e ---13-12-11-10----------------------------------------------------------------------
    H --------------14-13-12-11-----------------------------------------------------------
    G -------------------------13-12-11-10------------------------------------------------
    D ------------------------------------13-12-11-10-13-12-11-10-------------------------
    A -----------------------------------------------------------14-13-12-11--------------
    E -------------------------------------------------------------------------13-12-11-10

    5.

    e ---18-17-15----------------------------------
    H -----------18-17-15--------------------------
    G -------------------18-17-15------------------
    D ---------------------------18-17-15----------
    A -----------------------------------18-17-15--
    E -------------------------------------------15

    6.

    e ------------------------------------------12-13-14-15-
    H --------------------------------9-10-11-12-----------
    G ------------------------9-11-12---------------------
    D -----------------9-10-12----------------------------
    A ----------9-11-12-----------------------------------
    E --9-10-12-------------------------------------------

    7.

    e -----------------------------------17  :)
    H -------------------------------9-10--
    G ------------------------9-10-11------
    D --------------9-10-11-12-------------
    A -------9-10-11-----------------------
    E ---9-10------------------------------

    8.

    e --------------------------------------9-10-11
    H -------------------------------9-10-11-------
    G ------------------------9-10-11--------------
    D -----------------9-10-11---------------------
    A ----------9-10-11----------------------------
    E ---9-10-11-----------------------------------

    9.

    nije greska ovako naopako se svira :)
    e -----------------------------------------------------12-11-10-9         
    H -------------------------------------------12-11-10-9----------
    G ---------------------------------12-11-10-9--------------------
    D -----------------------12-11-10-9------------------------------
    A -------------12-11-10-9----------------------------------------
    E --12-11-10-9---------------------------------------------------

    10.

    e ---9-10-11-12--------------------------------------------------      također :)
    H -------------9-10-11-12----------------------------------------
    G -----------------------9-10-11-12------------------------------
    D ---------------------------------9-10-11-12--------------------
    A -------------------------------------------9-10-11-12----------
    E -----------------------------------------------------9-10-11-12

    Slični tekstovi

    » 0 komentara... Dodaj svoj!

    Još nema komentara