Priznaj mi - Uvodni solo na akustari

DR
Online status:

Korisnici
Pošalji PP
23 odgovora
Država:
Grad:
Godine:
Hvala:   0   puta!
#284263 u 14-09-2014 12:12 GMT+01 sat :


Ima li netko tablaturu uvodnog sola na akustari pjesme Priznaj mi od Big Blue?

Zahvaljujem!


XSARA
Online status:

Moderator
Pošalji PP
4422 odgovora
Država:
Grad: Rijeka
Godine:
Hvala:   87   puta!
#284266 u 14-09-2014 13:11 GMT+01 sat :


Uvodni solo na akust.g. je vrlo jednostavan(barem ako znaš flagiolete-harmonike)odsvirati,kreni od Dsus4...Em...itd...jedino šta sam ja moraogitaru naštimati pola tona niže (u Eb štim), tako je bar na ovoj snimci...


napišem ti ako ulovim vremena...


...and then one day you find .....
DR
Online status:

Korisnici
Pošalji PP
23 odgovora
Država:
Grad:
Godine:
Hvala:   0   puta!
#284268 u 14-09-2014 13:27 GMT+01 sat :


hvala XSARA,

pokušat ću ali ako uhvatiš vremena bio bih jako zahvalan

poz


Julian
Online status:

Korisnici
Pošalji PP
219 odgovora
Država:
Grad:
Godine: 49
Hvala:   18   puta!
#284269 u 14-09-2014 14:05 GMT+01 sat :


Inspiraciju su našli ovdje :D




DR
Online status:

Korisnici
Pošalji PP
23 odgovora
Država:
Grad:
Godine:
Hvala:   0   puta!
#284271 u 14-09-2014 15:29 GMT+01 sat :


najvjerojatnije su i ovi negdje našli inspiraciju ali to nije ono što sam ja tražio:-)


XSARA
Online status:

Moderator
Pošalji PP
4422 odgovora
Država:
Grad: Rijeka
Godine:
Hvala:   87   puta!
#284278 u 14-09-2014 20:58 GMT+01 sat :


Probaj ovako...(znači, gitara naštimana pola stupnja niže od standardnog štima, ako ide po ovom gornjem YT snimku):
Akordi/Tabovi:
e----3p2---0h2-----------x12-x12------
B---3---3-----3----------x12----x7----
G--2-----2-----2---------x12-------x5~
D-0-----------------0-----------------
A----------------0h2------------------
E---------------------0~--------------

e----------------------------
B---------2h3-2--2--0-2-3-2--
G--------2-----2-2-2-------2-
D----0--2--------2-----------
A-0h2-0----------0-----------
E----------------------------
                       
e------------3----------2
B-----0-3-0---3-0-------3
G----0-----0-----0------2--
D---0-----------------2-0--
A------------------0h2-----
E-3~-----------------------
                         Sve je tu...
X12-harmonik(flagiolet) na 12. pragu
x7-harmonik(flagiolet) na 7. pragu
x5-harmonik(flagiolet) na 5. pragu



...and then one day you find .....