Osvajaci Korak po korak (njihova nova pesma)

Maka1999
Online status:

Korisnici
Pošalji PP
6 odgovora
Država:
Grad: Prijedor
Godine:
Hvala:   0   puta!
#296710 u 26-11-2015 16:16 GMT+01 sat :


pozz

da li bi mogao dobiti akorde za ovu pesmu a i ako nije problem i ovaj gotivni uvod :)


XSARA
Online status:

Moderator
Pošalji PP
4476 odgovora
Država:
Grad: Rijeka
Godine:
Hvala:   92   puta!
#296725 u 26-11-2015 22:05 GMT+01 sat :


Akordi/Tabovi:
Osvajači-Korak po korak

Osnovni riff
  A
e----------------------
B-----------------------
G---2-2--2-2--2-2--2-2-
D---2-2--2-2--2-2--2-2--
A--0----0----0----0-
E-------------------
  Intro solo
e------------------
B------------------
G-7b9~-(7)--------
D---------7-7-(7)-
A-----------------
E----------------
                 
e------------------
B-------------------x--
G----------------(5b7)-
D-7-5--5-5---(7)-------
A-7--7------7----------
E----------------------

e------------------
B-------------------
G-----(2)----------
D--0h2---------------
A--------3p0-(5)p3---
E------------------5~

ovdje umjesto 7/8\7 može 7b8r7
e----------------
B-----------------
G-7/8\7-5-7p5-----
D-7/8\7------7-7~-
A----------------
E----------------
  A
e---------------------
B--------------------
G---2-2--2-2--2-2--2-2-
D---2-2--2-2--2-2--2-2-2
A--0----0----0----0--
Otkada kraj mene...

D                   A
Govore mi da...nastavi....

tonovi u zagradama ()- su "pinch harmonic"
  x
5b7....bendaj i odmah štopaj žicu

Tipični ZZ-Top riffovi i stil sviranja
Vidi kako B.Gibbons to radi....



...and then one day you find .....
Maka1999
Online status:

Korisnici
Pošalji PP
6 odgovora
Država:
Grad: Prijedor
Godine:
Hvala:   0   puta!
#296749 u 27-11-2015 16:59 GMT+01 sat :


Alaa prijatelju hvala tiii ,vec sam naucio svirati ovo sto si mi ti polsao nije toliko tesko kao sto sam mislio.
Da li bi mi mogao poslati akorde da odsviram jednom na akusticnoj gitari u drustvu da izdominiram hehe :)
Hvala ti jos jednom :)

Ovaj post je izmjenjen od Maka1999 (prije 27-11-2015 17:31, )


XSARA
Online status:

Moderator
Pošalji PP
4476 odgovora
Država:
Grad: Rijeka
Godine:
Hvala:   92   puta!
#296760 u 27-11-2015 21:57 GMT+01 sat :


jooooj prijatelju, a ne da mi se slušat dalje od 1 minute...aj sam, ma lako je.....


...and then one day you find .....