čuvari svirala - ne pričaj

negeba
Online status:

Korisnici
Pošalji PP
2 odgovora
Država:
Grad: split
Godine:
Hvala:   0   puta!
#264945 u 24-08-2013 19:24 GMT+01 sat :


jel ima neko akorde?


bolonjez25
Online status:

Banned
Pošalji PP
8 odgovora
Država:
Grad: Sisak
Godine:
Hvala:   0   puta!
#264946 u 24-08-2013 19:39 GMT+01 sat :


Ima za kupit ako te zanima javi se na PP.


negeba
Online status:

Korisnici
Pošalji PP
2 odgovora
Država:
Grad: split
Godine:
Hvala:   0   puta!
#264963 u 24-08-2013 20:59 GMT+01 sat :


http://www.youtube.com/watch?v=mX-5fRJLzeQ


molim vas ako znate akorde?

hvalaa!!!


noke:_90
Online status:

Korisnici
Pošalji PP
50 odgovora
Država:
Grad: Sarajevo
Godine:
Hvala:   3   puta!
#264968 u 25-08-2013 00:02 GMT+01 sat :


Citat
# negeba :
ttp://www.youtube.com/watch?v=mX-5fRJLzeQ


molim vas ako znate akorde?

hvalaa!!!

www.chordify.net, stavi link pjesme i dobićeš akorde poprilično tačne i onda sviraj i vidi gdje šta valja ili ne valja i postavi na forum možda neko ispravi ako šta bude pogrešno. Teško da će ti neko skinuti pjesmu ako njemu lično ne treba.


Zeleni_Zub
Online status:

VIP
Pošalji PP
2144 odgovora
Država:
Grad: Tešanj
Godine: 26
Hvala:   41   puta!
#265027 u 26-08-2013 00:10 GMT+01 sat :


Ajde budem ti ja sutra skinuo akorde


Aye hot babie what are you doing later i am guitar player in band
Kad porastem zelim da budem kao GoFgO
Zeleni_Zub
Online status:

VIP
Pošalji PP
2144 odgovora
Država:
Grad: Tešanj
Godine: 26
Hvala:   41   puta!
#265063 u 26-08-2013 19:34 GMT+01 sat :


Eh evo, onaj intro iskreno nemam zivaca skidati :D
Akordi/Tabovi:
D#m7
Ne govori o ljubavi

koju nismo dotakli,
G#m7 (onaj na 11-om polju)
ne govori o ljubavi
A#7
i ludi će nam se smijati.


D#m7
Ne govori o ljubavi

za koju nismo kopali,
G#m7
što si rekla,rekla si,
A#7
stisni usne i otvori oči.

F#5(?) A#7
Šu-----ti.

D#sus2       
Razbit ćeš nam sve
A#7
što je nastalo zbog nas.

F#5(?) A#7
Šu-----ti.

D#sus2
I mudra riječ je ružna
A#5                 A#5
kad se kaže u krivi čas.

D#5               H5
Ne pričaj da me voliš,
A#5         
ne vjerujem riječi
G#5             A#5
nosi osmjeh i ledene oči.
D#5              H5
Ne pričaj da me voliš,
A#5                 G#5-A#5
ne vjerujem riječi.

Ako ko nadje kakvu gresku neka javi

Ovaj post je izmjenjen od Zeleni_Zub (prije 26-08-2013 19:52, )


Aye hot babie what are you doing later i am guitar player in band
Kad porastem zelim da budem kao GoFgO
XSARA
Online status:

Moderator
Pošalji PP
4421 odgovora
Država:
Grad: Rijeka
Godine:
Hvala:   86   puta!
#265070 u 26-08-2013 21:02 GMT+01 sat :


Evo tu je intro i sam početak..već u uvodu ti fali F ...dalje nisam išao
Spusti šestu žicu na D(drop D) i capodaster na prvo polje!
Akordi/Tabovi:
Čuvari svirala
Ne pričaj
Tuning:Drop D(6tu žicu spusti na D)
Capodaster na prvom polju !

Intro(2x)


e---4/5-3----8----4/5-3----8---
B---5/6-5-5h6-----5/6-5-5h6---
G-------------7--------------7
D------------------------------
A------------------------------
D-0--------------0-------------

e-----------------------
B--------------------3--
G--0---3-2------2-2-2-0-
D----3----3-3h5---------
A-----------------0-----
D--5--------------------

Strofa
   Dm7
e---1---------------------
B---1---------------------
G---2---------------------
D--0--------------------------
A-----------------------
D-----------------------
  Ne govori o ljubavi...

   F
e---1---------------------
B---1---------------------
G---2---------------------
D--3--------------------------
A-----------------------
D-----------------------
  Koju nismo dotakli...

   Gm
e---6---------------------
B---3---------------------
G---3---------------------
D--5--------------------------
A-----------------------
D-----------------------
  Ne govori o ljubavi...

   A7
e----0-0-----------------
B---2-2-2~------------------
G-----------------------
D----------------------------
A--0---------------------
D-----------------------
  I ludi će nam se smijati...


Ovaj post je izmjenjen od XSARA (prije 27-08-2013 00:39, )


...and then one day you find .....
Zeleni_Zub
Online status:

VIP
Pošalji PP
2144 odgovora
Država:
Grad: Tešanj
Godine: 26
Hvala:   41   puta!
#265072 u 26-08-2013 21:08 GMT+01 sat :


Ah taj navaljali F (ili ti ga F# za nas bez capo-a pri ruci :P) mi je utekao

A sta ide ovdje na ovom dijelu dok pjeva 'šuuuuuti'?
Nekako ne mogu da skontam koji je tacno, znam da je neki oblik F# akorda


Aye hot babie what are you doing later i am guitar player in band
Kad porastem zelim da budem kao GoFgO
XSARA
Online status:

Moderator
Pošalji PP
4421 odgovora
Država:
Grad: Rijeka
Godine:
Hvala:   86   puta!
#265081 u 26-08-2013 22:36 GMT+01 sat :


Akordi/Tabovi:
   Bbsus2   A
e-(1)------5-------------
B--1-------5------------
G--3-------6-------------
D--3-------7-------------------
A--1---------------------
D-----------------------
  Šuuuuu...ti...



...and then one day you find .....
Zeleni_Zub
Online status:

VIP
Pošalji PP
2144 odgovora
Država:
Grad: Tešanj
Godine: 26
Hvala:   41   puta!
#265083 u 26-08-2013 22:48 GMT+01 sat :



A hajde, barem ima F# u sebi :P


Aye hot babie what are you doing later i am guitar player in band
Kad porastem zelim da budem kao GoFgO