Uvodni solo - Plava balada

5MPX
Online status:

Korisnici
Pošalji PP
4 odgovora
Država:
Grad:
Godine:
Hvala:   0   puta!
#237345 u 26-08-2012 23:06 GMT+01 sat :


Pozdrav svima, ako neko zna da mi napiše uvodni solo za pjesmu Balašević - Plava balada

Balasevic - plava balada

Hvala vam unaprijed


tordajav
Online status:

Korisnici
Pošalji PP
130 odgovora
Država:
Grad:
Godine:
Hvala:   1   puta!
#237433 u 28-08-2012 00:31 GMT+01 sat :


E kad se setim kad sam ovo svirao... kad je album izašao.
Kasno je sad da ti pišem i sviruckam, sutra ću ti napisati :)
...slušajući pesmu i reči... eh kakvo je vreme došlo


tordajav
Online status:

Korisnici
Pošalji PP
130 odgovora
Država:
Grad:
Godine:
Hvala:   1   puta!
#238379 u 09-09-2012 17:03 GMT+01 sat :


Izvinjavam se što nisam uradio kad sam najavio, druge stvari su mi naišle na put...




Akordi/Tabovi:
   C            G          Am        F    G                       C
e|---0-1-3-1-0-----------------------------3---------8p7----------------|
B|---1-3-5-3-1----0-1-3-3----1-3-5-5/8-7--3------10p8---8---------------|
G|----------------0-2-4-4----2-4-5-5-9-8-----------------5h7p5-4--4-----|
D|--------------------------------------------------------------5-------|
A|----------------------------------------------------------------------|
E|----------------------------------------------------------------------|

   C            G          Am        F    G                       C
e|---0-1-3-1-0-----------------------------3------/12-12-12-12-10-8-----|
B|---1-3-5-3-1----0-1-3-3----1-3-5-5/8-6--3-----------------------------|
G|----------------0-2-4-4----2-4-5-5-9-7--------------------------------|
D|----------------------------------------------------------------------|
A|----------------------------------------------------------------------|
E|----------------------------------------------------------------------|