Azra štićenik solo i Baby baby

tinchy199
Online status:

Korisnici
Pošalji PP
58 odgovora
Država:
Grad: Zagreb
Godine:
Hvala:   0   puta!
#235901 u 10-08-2012 17:16 GMT+01 sat :


Hitno trebam akorde i solaže za navedene pjesme
Unaprijed hvala :)


Leptirich
Online status:

Korisnici
Pošalji PP
59 odgovora
Država:
Grad: Somewhere over the rainbow
Godine:
Hvala:   2   puta!
#236183 u 14-08-2012 07:25 GMT+01 sat :


Štićenik solo ovako nekako otprilike..

Akordi/Tabovi:
e|------------------------------|------------------------------------|--- 
B|--14-14-12----12--------------|--14-14-12----12----------------12--|---
G|-----------14----14-11-14b----|-----------14----14-11----11-14-----|---
D|---------------------------14-|-----------------------14-----------|---
A|------------------------------|------------------------------------|---
E|------------------------------|------------------------------------|--- i onda još jednom tu ide prvi dio onaj


Sad je 6 ujutro pa ne mogu ništa više napisat, ovo sam na brzinu čuo i eto napisao donekle kao xD


tinchy199
Online status:

Korisnici
Pošalji PP
58 odgovora
Država:
Grad: Zagreb
Godine:
Hvala:   0   puta!
#236352 u 16-08-2012 14:51 GMT+01 sat :


puno hvala...da li mi možda možete pomoći sa baby baby? :D


Leptirich
Online status:

Korisnici
Pošalji PP
59 odgovora
Država:
Grad: Somewhere over the rainbow
Godine:
Hvala:   2   puta!
#236570 u 18-08-2012 17:07 GMT+01 sat :


Evo ček da posložim čarape po kući. Previše ih je. Kad ih treba nigdje ih nema i onda kad ti ne trebaju , previše ih je. I nadam se da nisi meni rekla "možete". Pobogu, nisam star - nitko ovdje nije xD

Dodano nakon 38 minute

evo baby baby, ovo je onako početnički i nisam niti malo siguran koji je prvi akord, ali ovo zvuči zasad dobro pa eto onda zasad ovako xD
Akordi/Tabovi:
intro

e----------------------------------
B----------------------------------
G------1---------------------------
D----2--------7--------------------
A-----------7----------7-9-7-------
E--0------5-----7---10-------10-7--


i onda kroz cijelu pjesmu idi samo E, A, H. odsviraš pola takta E, pa pola takta A i onda držiš cijeli takt H i tako cijelu pjesmu. Iako imam dvojbi, ali zasad bi ovo trebalo biti dobro =D


tinchy199
Online status:

Korisnici
Pošalji PP
58 odgovora
Država:
Grad: Zagreb
Godine:
Hvala:   0   puta!
#236629 u 19-08-2012 12:45 GMT+01 sat :


hvala opet


Leptirich
Online status:

Korisnici
Pošalji PP
59 odgovora
Država:
Grad: Somewhere over the rainbow
Godine:
Hvala:   2   puta!
#236638 u 19-08-2012 14:27 GMT+01 sat :


Joj pardon, zaboravio sam reći da taj solo sviraš dva puta , s tim da drugi put kad sviraš dođeš do kraja A, znači odsviraš ono 5, 7, 7, i onda malo staneš i udariš H 4 puta i onda počneš svirat akorde.. pardon ^^