Slobodan Vasic - Otisla si e pa neka

Seyo
Online status:

Korisnici
Pošalji PP
8 odgovora
Država:
Grad:
Godine: 50
Hvala:   0   puta!
#178428 u 03-03-2011 20:23 GMT+01 sat :


Moze li mi neko dat akorde za ovu pjesmu :D http://www.youtube.com/watch?v=er3eE5rwtSE ;)


jakovblazevic
Online status:

Korisnici
Pošalji PP
56 odgovora
Država:
Grad: charlotte
Godine: 50
Hvala:   1   puta!
#178474 u 04-03-2011 06:03 GMT+01 sat :


Akordi/Tabovi:
e:-||--10h11p10--8h10p8------------------------------------------
h:-||--------------------11h13p11--10h11p10-------10---11---13---
g:-||----------------------------------------12------------------
D:-||------------------------------------------------------------
A:-||------------------------------------------------------------
E:-||------------------------------------------------------------


e:-||--10h11p10--8h10p8------------------------------------------
h:-||--------------------11h13p11--10h11p10----------------------
g:-||----------------------------------------12---9-10-11-12-----
D:-||------------------------------------------------------------
A:-||------------------------------------------------------------
E:-||------------------------------------------------------------


Uvod:
Glavna tema 2x


Strofa:

Gm
Otisla si, e pa neka
neka su ti sretni puti
             F
svakog svoja sudba ceka
                     Gm  (F)*
i list padne kad pozuti


Refren (2x):

B
Sta da radim kad ne mogu
      G7   Cm
da te sebi vratim
zato necu ni da mislim
F            B      (F)*
da zbog tebe patim


* F u zagradi se svira na
  kraju drugog ponavljanja

Post-Refren:

Strofa (2x):

Voleo sam, e pa neka
nek te sada drugi voli
tako je od pamtiveka
malo srece, malo boli

Refren (2x):

Sta da radim kad ne mogu
da te sebi vratim
zato necu ni da mislim
da zbog tebe patim

Post-Refren:

Strofa:

Sve je proslo, e pa neka
neka i ta ljubav prodje
i za srce ima leka
kad mu druga ljubav dodje

Refren (2x):

Sta da radim kad ne mogu
da te sebi vratim
zato necu ni da mislim
da zbog tebe patim



Seyo
Online status:

Korisnici
Pošalji PP
8 odgovora
Država:
Grad:
Godine: 50
Hvala:   0   puta!
#178490 u 04-03-2011 13:32 GMT+01 sat :


joj jarane koji si ti kralj :D fala :D