A ti si izabrala njega

  • autor: futa
  • datum: 15-01-2009 21:04

Pronađi akord!

Ne znaš kako odsvirati neki od akorda pjesmi A ti si izabrala njega? Upiši akord u tražilicu i saznaj!

Traženi akord će se prikazati ovdje

Od istog izvođača

Pregledano 14465 puta
Pregledano 6555 puta
Pregledano 40177 puta
Pregledano 15162 puta
Pregledano 5783 puta
Akordi/Tabovi:
Muzika:A#-Cm-F-A#-D#-A#-Cm-F-A#

Gm            F             
Nije on vredan da pored tebe
D#            A#
bude ni pet minuta
Gm           F
njemu su zene bile i bice
D#            A#
stanice pored puta
Gm             F
njemu su strani svi tvoji jadi
D#            A#
on uvek negde luta

Ref.
A#            F
A mogla si da imas me
A#               F
sa mnom da zivis najbolje
Cm             Gm
zbog tebe bih otopio
D#           F
i planinu od snega

A#            F
A mogla si da carujes
A#              F
u ljubav jos da verujes
Cm            Gm
a ti si k'o i ostale
D# F     A#
izabrala njega

Nema on snage da radi tebe
uradi prave stvari
on uvek samo misli na sebe
a tebi radost kvari
sa njim su dani k'o so' na rani
za ljubav on ne mari
Komentari

Maicon kaže:

Jel' moze neko napisati tabove za ovu pjesmu ???

24-11-2009 22:58

futa kaže:

e to bogami nije lako...

30-11-2009 22:25

vuja kaže:

futa je pohvato akorde koje svira onaj popularni lik na youtube (dragan) i podigo za jedan stepen, vjerovatno da sakrije odakle je prepiso i onda je dobio pogresan tonalitet, znaci sve ovo spustite za prag nize i to je to ))

03-09-2010 18:44

defibrator kaže:

Valjda ce ispasti kako valja. To je najlakse sto sam mogao da skinem..


e--------------------------------------------------------------------------
H----1--3--1--4--3--1--3--1----1----------1-----3--1-----1-----------------
G--3--------------------------------2--3-----3--------3-----3--3-----------
D--------------------------------------------------------------------------
A--------------------------------------------------------------------------
E--------------------------------------------------------------------------

e-----1--3--1--4--3--1--3--1-----------------------------------------------
H--4--------------------------4----3-3---1--3--1--3--1-----1---------------
G-------------------------------------------------------3-----3--3---------
D--------------------------------------------------------------------------
A--------------------------------------------------------------------------
E--------------------------------------------------------------------------

08-09-2010 15:40

defibrator kaže:

evo ga sad








e--------------------------------------------------------------------------
H----1--3--1--4--3--1--3--1--1---------------1-----3--1-----1--------------
G--3-----------------------------------2--3-----3--------3-----3--3--------
D--------------------------------------------------------------------------
A--------------------------------------------------------------------------
E--------------------------------------------------------------------------

e-----1--3--1--4--3--1--3--1-----------------------------------------------
H--4--------------------------------4---3-3---1--3--1--3--1-----1----------
G------------------------------------------------------------3-----3--3----
D--------------------------------------------------------------------------
A--------------------------------------------------------------------------
E--------------------------------------------------------------------------

08-09-2010 15:45

Dario-zg kaže:

vuja malo si se zajebao, dragan na youtube-u svira za prag nize sto nije u originalnom tonalitetu, ovo sta je futa stavio je originalan tonalitet.

14-12-2010 03:39

Dario-zg kaže:

ali nisu svi akordi tocni

14-12-2010 03:45

arsenal1911 kaže:

jeli mi moze iko rec koji akordi idu ovdje na prijelazu sa F na Cm u refrenu????? nemogu skontat sta tu sviraju kad slusam pjesmu

16-05-2012 19:00

skyline84 kaže:

Meni ovdje iznad "...vredan da pored..." i "zene bile i" bolje zvuči Dm umjesto F.

28-08-2012 15:25

skyline84 kaže:

A i treći put, kad svira "njemu su strani svi tvoji jadi" umjesto F bi bolje zvučalo Cm

28-08-2012 15:27

Dragon kaže:

Gm Dm
Nije on vredan da pored tebe
D# B
bude ni pet minuta
Gm Dm
njemu su zene bile i bice
D# B
stanice pored puta
Gm Dm
njemu su strani svi tvoji jadi
D# B
on uvek negde luta

Ref.
B F
A mogla si da imas me
B F
sa mnom da zivis najbolje
Cm Gm
zbog tebe bih otopio
D# F
i planinu od snega

B F
A mogla si da carujes
B F
u ljubav jos da verujes
Cm Gm
a ti si k'o i ostale
D# F
izabrala njega

Nema on snage da radi tebe
uradi prave stvari
on uvek samo misli na sebe
a tebi radost kvari
sa njim su dani k'o so' na rani
za ljubav on ne mari

Tačna verzija

28-10-2012 14:25

futa kaže:

U pravu si, treba tamo d-mol. Samo, kod treceg puta(u strofi), e, tu ides na F i na kraju D#-F-B.


g.........................F
njemu su strani svi tvoji jadi
D#.......F..........B
on uvek negde luta

I u refrenu na kraju, fali ti B

28-09-2013 01:59