Webshop Music Centar

Prljavo Kazalište

Uzalud Vam Trud Svirači /Verzija 2/

by: acme020

Pronađi akord!

Ne znaš kako odsvirati neki od akorda pjesmi Uzalud Vam Trud Svirači /Verzija 2/? Upiši akord u tražilicu i saznaj!

Traženi akord će se prikazati ovdje

Od istog izvođača

Pregledano 14041 puta
Pregledano 52035 puta
Pregledano 3112 puta
Pregledano 3538 puta
Pregledano 11399 puta
Trebaš ritam za ovu pjesmu? Pronađi ga ovdje
Akordi/Tabovi:
E|--2--2-2---|--0--2-|--5--3--3-3-|--2--3--4-|--5--7--5--3--3--5--3--2-|
H|---------3-|-------|------------|----------|-------------------------|
G|-----------|-------|------------|----------|-------------------------|
D|-----------|-------|------------|----------|-------------------------|
A|-----------|-------|------------|----------|-------------------------|
E|-----------|-------|------------|----------|-------------------------|(uvod)

E|--2--2--2--2--0-----0---------------------|
H|-----------------3-----2--3--3--2----2--0-|
G|-----------------------------------2------|
D|------------------------------------------|
A|------------------------------------------|
E|------------------------------------------|


Hm                 Em
stoput sam se evo zakleo,
A             D    F#
pred jutro te prevario,
Hm                    Em
drugoj ja sam bagrem nosio,
A             D  F#
tebe iznevjerio.

Hm                 Em
stoput sam se evo zakleo,
A    D       F#
pa te prevario,
Hm               Em
sad bi dukate od jada,
G     F#        Hm
bas u blato bacio.

                 Em
a za oblak mi se mjesec skrio,
A          G F#
sakrio mi pute,
Hm                   Em
uzalud vam trud sviraci,
G    F#              Hm
za drugog su dunje zute.

a ja evo opet sjetim se,
sto moj caca znao reci je,
sve ti duse,sine,slavonske,
uz pesmu prebole,al' ne oproste

uz pjesmu mi se evo rodimo,
uz pjesmu umiremo,
slavonijo ko te nije volio,
ne zna sta je izgubio.
Komentari

Ćićak12 kaže:

???

27-02-2009 12:34

krešo kaže:

nije loše samo nebireko da ovaj Hm ide

02-03-2009 20:39

_Dara_ kaže:

E|--2--2-2---|--0--2-|--5--3--3---|--2--3--4-|-5---5--7--5--3--3--2----|
H|---------3-|-------|------------|----------|-------------------------|
G|-----------|-------|------------|----------|-------------------------|
D|-----------|-------|------------|----------|-------------------------|
A|-----------|-------|------------|----------|-------------------------|
E|-----------|-------|------------|----------|-------------------------|

E|--2--2--2--2--0---------------------------|
H|-----------------3---3--2--3--2------2--0-|
G|-----------------------------------2------|
D|------------------------------------------|
A|------------------------------------------|
E|------------------------------------------|

06-07-2009 19:41

kookos kaže:

Kak nebi išo Hm kad je pjesma u H molu j**ogapatak. Slušaj malo ak imaš s čim

20-07-2009 23:44

fera kaže:

Odlicno je, thanks za akorde.

12-10-2009 22:21

haro16 kaže:

ima bolja verzija za uvod

EI--7-7-7-3-5-7-10-8-7-8-9-10-12-10-8-8-7---7-7-7-7-5-3-5-3-2-3-3-2-2---2-0
HI--------------------------------------------------------------------3----
GI-------------------------------------------------------------------------
DI-------------------------------------------------------------------------
AI-------------------------------------------------------------------------
EI-------------------------------------------------------------------------

pozzz...

12-11-2009 18:33

haro16 kaže:

ova trojka ide ina ---3-3-2-2

12-11-2009 18:34

batmanica kaže:

najbolja verzija do sad...svaka čast

27-11-2009 22:58

Srecko411 kaže:

Svaka cast,i za akorde i za ovaj uvod!

23-12-2009 14:59

Psyduck kaže:

svaka cast

28-01-2010 19:41

Psyduck kaže:

samo. nebi trebo F#m ic umjesto F#?

28-01-2010 19:44

acme020 kaže:

Nisam siguran za F#m,meni bolje zvuci F#?

12-03-2010 14:20

bojan811 kaže:

Nisam siguran da i u delu refrena gde kaze

"sakrio mi pute" ide A G F# ----pre ce biti prelaz A D F#
Ko ne veruje neka proba sta prirodnije zvuci.
Ostalo je ok.

Sto se tice F# ili F#m mislim da je ipak dur.

14-08-2010 23:36

xxxxVenomxxxx kaže:

Akordi/Tabovi:
Ljudi probajte ovako..mislim da je malo potpunije:

Hm                Em  E7
stoput sam se evo zakleo,
A             G   F#7
pred jutro te prevario,
Hm                   Em  E7
drugoj ja sam bagrem nosio,
A           D  F#7
tebe iznevjerio.

Hm                Em  E7
stoput sam se evo zakleo,
A      G    F#7
pa te prevario,
Hm               Em
sad bi dukate od jada,
G     A        Hm
bas u blato bacio.

                 Em        E7
a za oblak mi se mjesec skrio,
A         G  F#7
sakrio mi pute,
Hm                   Em
uzalud vam trud sviraci,
G      A           Hm
za drugog su dunje zute.

Hm              H7    Em         E7
a zaaa oblaak mi seee mjesec skrio....itd..(TREMOL)
G             F#7               Hm
za druuugooog suuu dunjeee žuuuteee....(TREMOL)

12-09-2011 13:15

Posavac5 kaže:

Jel mi može netko reći kojim ritmom se svira pjesma. Hvala unaprijed.

20-10-2013 21:21