Idi Dok Si Mlad

  • autor: Princ
  • datum: 21-12-2008 12:11

Pronađi akord!

Ne znaš kako odsvirati neki od akorda pjesmi Idi Dok Si Mlad? Upiši akord u tražilicu i saznaj!

Traženi akord će se prikazati ovdje

Od istog izvođača

Pregledano 45416 puta
Pregledano 2066 puta
Pregledano 6805 puta
Pregledano 20048 puta
Pregledano 9342 puta
Akordi/Tabovi:
Ceca Raznjatovic-Idi Dok Si Mlad

Solo:2x
F                          C
5--------5-5--5-6-8-6-5--------------------5-6-5-----
---6-8-8----------------8--8--5-6-6-8-8--8-------8-6-
-----------------------------------------------------
-----------------------------------------------------
-----------------------------------------------------
-----------------------------------------------------
A#                          A   |ovaj dio sam ubacio radi
--------------------6-5---------|-----------------lijepseg
6----5-5-6-6----5-6-----8-6-6-5-|-5--6---8--------uklapanja
---7----------7-----------------|-----------------u ponavljanje
--------------------------------|-----------------
--------------------------------|-----------------
--------------------------------|-----------------
Dm  A      Dm
Idi dok si mlad
Dm       A               A#
Dok imas vremena za more promena
   Dm  `    A Dm           A
Za let i za paad, za sutra ili sad
       A#
Ma idi dok si mlad

A#    C    Dm    C
Nocas kada gosti odu
A#      C      Dm
Odlazi, pustam te
A#       C    Dm        C
Dajem ti blagoslov i slobodu
A#        C       Dm
Jer pukli smo zar ne

REFREN:
F
Idi gde hoces, ljubi sve zivo
C             A#
Al ipak drzi, bar neki nivo
F
Ne igraj zmurke, ma nismo deca
C              A#
Ja vise nemam, ni jednog keca
A#  C Dm
U rukavu

Solo:
Dm   A     Dm
Tako ti je to
Dm        A                  A#
Od klinca napravis Princa za kajanje
   Dm   A   Dm
Iz voza ispadnes
Dm      A                  A#
Ostanes cak i bez mesta za stajanje

A#     C     Dm   C
Poljubimo se ko odrasli
A#        C      Dm
Jer jasno nam je sve
A#      C         Dm    C
Pokidaj lance dok nismo srasli
A#        C       Dm
Jer pukli smo zar ne

REFREN:2x
Komentari

born to rock kaže:

j*ebo te turbofolk

21-12-2008 14:03

Princ kaže:

Pa sto si ti tako agresivno nastrojen?Slao sam ja i rock pjesama pa nek svira ko sta voli.Ja ako bi izdavao svoj album taj album bi definitivno bio rock posto sam ja rock poceo slusati od trce god.A u turbo folku nemas sta svirati na gitari osim akorda.Turbo folk je muzika prvenstveno namjenjena za klavijaturu.

25-12-2008 17:52

pecaros79 kaže:

Kome se ne svidja zasto je uopste i otvarao ovu stranicu?

24-06-2009 15:51

RMTocak kaže:

Svaka cast, fino odradjeno!

31-01-2013 17:36

zar-i-ti kaže:

Nije svaka čast i nije fino odrađeno

31-01-2013 18:05