Dunavom jos sibaju vetrovi

  • autor: Princ
  • datum: 02-11-2008 13:20

Pronađi akord!

Ne znaš kako odsvirati neki od akorda pjesmi Dunavom jos sibaju vetrovi? Upiši akord u tražilicu i saznaj!

Traženi akord će se prikazati ovdje

Od istog izvođača

Pregledano 4509 puta
Pregledano 2836 puta
Pregledano 3897 puta
Pregledano 9539 puta
Pregledano 8353 puta
Akordi/Tabovi:
Yu Grupa-Dunavom jos sibaju vetrovi

Solo:2x drugi put ne svirate 11 i 12 na kraju
        ovaj solo se svira sa tri gitare dve sviraju solo u isto
        vrijeme na razlicitim poljima a ova treca prati u akordima
G     D   Am    Em       D    G        D        Am       Em D  G )
10--------10---------------------10------------------------------)
---12-10-----12-10------------------12-10----------10------------)
-------------------12-11-9----------------12-11-12----11-9--11-12)2x
---------------------------12-12---------------------------------)
-----------------------------------------------------------------)
-----------------------------------------------------------------)
G   D  Am  Em     D    G      D      Am     Em D  G  )
-----------------------------------------------------)
-----------------------------------------------------)
7------7------------------7--------------------------)2x
--9-7----9-7----------------9-7---------7------------)
-------------10-9-7-------------10-9-10---9-7--9--10-)
--------------------10-10----------------------------)
Em    D    Am        Em
Stari grad brije kosava
Em    D        Am Em
lisce pokriva sve
Em     D   Am         Em
prazan kej i golo drvece
Em     D     Am  Em D G
sve je kao i pre

REFREN:2x drugi put na kraju ne svirate D
G       D   Am          Em D G
Dunavom jos sibaju vetrovi
G       D  Am            Em  D
ali smo mi suprotni svetovi

Em    D   Am            Em
Jesen je, na tebe secam se
Em      D        Am    Em
al neko drugi je mlad
Em     D   Am        Em
gde li si, prva ljubavi
Em     D        Am   Em D G
i kako izgledas sad ?

REFREN:2x
Solo:6x stisava se OOOooo...___
Komentari

sinisa95 kaže:

odlicno!

27-12-2008 14:10

sinisa95 kaže:

ide Em7 i Am7.

27-12-2008 14:10

Zele92 kaže:

ne ide

12-10-2009 20:32

Tonny Iommi kaže:

sta ti je dobro ovo

12-10-2009 20:50

haris kaže:

Šta se ti Tonny Iommi žališ?? Ovo je u originalu skinuto...

12-10-2009 21:41

Skid row-18 kaže:

Los je solo ne ide tako krivo napisano "pre visoko tablovi idu ovako.....

|----------------------------3---------------------------------\
|----3-----3-------------------4-2---------2------------------- \
|------4-2----4-2------------------5-4-4h5---4-2--4-4h5-------- \ 2x
|-----------------5-4-2---------------------------------------- /
|-----------------------5-5------------------------------------ /
|--------------------------------------------------------------/


a ko je piso il nezna il nije cuo il nema dovoljnog sluha za pjesmu.... neka proba ovako....

06-12-2009 01:04

Skid row-18 kaže:

sori ja sam pogresno napiso ovaj drugi dio ne na prvoj zici nego na drugoj..........!!!!!!.....xD

06-12-2009 01:07

vedrankreator kaže:

Prijedlog: Probajte umjesto Am svirati C. Meni ljepse zvuci tako, a i lakse je svirati pozz

17-04-2010 18:34

haris kaže:

Skid-row, inače ovo sviraju dvije gitare (solo+oktava), ali na koncertima sviraju samo ovu nižu..

18-04-2010 10:53

Zeleni_Zub kaže:

Samo slusaj i obrati paznju na bubnjeve

26-12-2010 13:52