Dvadesete

  • autor: wacko155
  • datum: 15-09-2008 17:47

Pronađi akord!

Ne znaš kako odsvirati neki od akorda pjesmi Dvadesete? Upiši akord u tražilicu i saznaj!

Traženi akord će se prikazati ovdje

Od istog izvođača

Pregledano 3772 puta
Pregledano 27279 puta
Pregledano 11855 puta
Pregledano 20995 puta
Pregledano 25794 puta
Akordi/Tabovi:
Am  F  C  G 

Am        Em     F
Od jeseni do jeseni
sve u meni za tobom zazeleni
     C  G    C            Am  C G
a ja lud, pa mislim na tebe 

Bol bolujem, pet nedelja
poderao sam evo pet postelja

a ja lud, pa mislim na tebe

Ref. 2x

    C                 G
Dvadeset i neka ti je godina
     Dm   Am      G     Am
isto toliko mi je tamnica

jedna od druge je duso hladnija
jer iz svake mi zima izbija

Gorku sam ja casu popio
u tebi led suzom topio

a ja lud, pa mislim na tebe


Bol bolujem, pet nedelja
poderao sam evo pet postelja

a ja lud, pa mislim na tebe

Ref. 4x



eto potrudio sam se i za solo ako ga vec neko nije posto





Akordi/Tabovi:
|--12-10-8------------8-----------------12-10-8-------------8------------12---------|
|----------12-10---12---12--10-10-8-------------12-10----12---12--10-10------10-10--|
|-----------------------------------------------------------------------------------|
|-----------------------------------------------------------------------------------|
|-----------------------------------------------------------------------------------|
|-----------------------------------------------------------------------------------|

    2x ponoviti
Komentari

chaleta kaže:

jel netko zna solo?
tab za njega

26-12-2008 14:24

jura_1991 kaže:

odlična pjesma

11-01-2009 14:31

fortara1 kaže:

07-09-2009 21:19

gitarista88 kaže:

|--12-10--------------------------------12-10-------------------------------12---------|
|--------13-12-10---12-13--12--10-10----------13-12-10----12-13--12--10-10------10-10--|
|------------------------------------12------------------------------------------------|
|--------------------------------------------------------------------------------------|
|--------------------------------------------------------------------------------------|
|--------------------------------------------------------------------------------------|

Mislim da je ovako bolje i mnogo jednostavnije za odsvirati

23-10-2009 15:51

gitarista88 kaže:

e jebiga, ne znam zašto mi je ovako uneredio tab...sorry

23-10-2009 15:53

simek kaže:



prijatelju odlično si to obradio,svaka čast...!

10-12-2009 17:56

gyoovanny kaže:

katastrofa...dobro jel vi cujete da su akordi totalno krivi????????????????????

10-11-2010 10:11

problem child kaže:

gyoovanny, ako ima nas vjerojatno 120 ko je skuzio ove akorde, kojima je pjesma dobra i koji vide da akordi nisu krivi, zasto ti jedini mislis da akordi ne pasu. ne zelim da se uvrijedis, ali mozda tvoj sluh za te akorde nije dobar i vjerojatno ti je gitara rastimana...jesi probao svirat uz pjesmu?

11-03-2011 18:18

problem child kaže:

koji su skuzili*

11-03-2011 18:18

Pavac_ kaže:

katastrofa..ovo nema veze s vezom!!

26-04-2011 11:57

garfield kaže:

pa moze se svirat na vise nacina
npr i ovako



a G F
Od jeseni do jeseni
a G F
sve u meni za tobom zazeleni
C G F G a F G
a ja lud, pa mislim na tebe

drugi put

C G F G a G F G(skracene 5ice)
a ja lud, pa mislim na tebe

1-12-10--8--7----7--8-7----------
2-13-12-10-10-10-8-10-8-10r-(10)-
3--------------9---------9----9--

26-04-2011 13:20

Armin-Limo kaže:

Kralju ... probaj cjelu pjesmu vako svirati: Hm , Gm , D-dur , A-dur...

07-07-2011 17:04

xxxxVenomxxxx kaže:

giovani i pavac trebali bi kod doktora provjerit sluh,akordi nisu krivi,ali opet nisu ni dobri,približno bi se tako sviralo,ali može se i bolje..

27-12-2011 11:56

LoLa kaže:

Ne tako doktore reka san ti malo prije
navućeš neprijatelje i onda si izgorija
ka i ja.Budi malo prefrigan za mene je već kasno
da se minjam.Probaj u fino možda upali.

27-12-2011 12:43

xxxxVenomxxxx kaže:

hhahaa

27-12-2011 13:17

Suba98 kaže:

mozel ritam?

05-06-2013 11:30

xxxxVenomxxxx kaže:

DGDGGDG otprilike s tim da na DGD(ovdje kada ide ruka dole malo uštopaš)GGDG....i imaš moju ovdje verziju s točnim akordima...pozz...

06-06-2013 11:32