Crni leptir

  • autor: rock_elpeza
  • datum: 18-08-2008 17:50

Pronađi akord!

Ne znaš kako odsvirati neki od akorda pjesmi Crni leptir? Upiši akord u tražilicu i saznaj!

Traženi akord će se prikazati ovdje

Od istog izvođača

Pregledano 9099 puta
Pregledano 43579 puta
Pregledano 7595 puta
Pregledano 8873 puta
Pregledano 14122 puta
Akordi/Tabovi:
SOLO:
e-0-3-5s7---7-5-3s5---5-3-2s3-2-3-2-0----------------------
h----------------------------------------------------------
g----------------------------------------------------------
d----------------------------------------------------------
a----------------------------------------------------------
e----------------------------------------------------------
                                                                   
e----------------------------------------------------------
h-3s7---7-5-7s8---7-3s5---5-3s5----------------------------
g----------------------------------------------------------
d----------------------------------------------------------
a----------------------------------------------------------
e----------------------------------------------------------

Em          D               Em
Ulicna svetiljka, baca svetlost u krug,
Em                D            Em
dok crni leptiri lete pravo na nju,

Em  C        Em       D  C
ali ne znaju da tu je kraj,   
Em     C    G     D         Em
da ih ubija njene svetlost sjaj
       
ali ne znaju da tu je kraj,     
da ih ubija njene svetlost sjaj   

SOLO:

Nekad sam leteo leptir bio i ja,
svetlost me mamila krila mi sprzila,

crni leptiru ,bezi u noc,
jutro savekaj svetlost ce doc'

crni leptiru ,bezi u noc,
jutro savekaj svetlost ce doc'

SOLO:
Komentari

stijacic kaže:

fali ti samo jedan akord. trbalo bi ovako da ide:
Em C Em D A
ali ne znaju da tu je kraj.


ako hoces mogu ti ostaviti prave akorde uvoda, ako ti treba.

24-08-2008 20:16

shone kaže:

Nisam siguran za refren mislim da je bolja verzija

Em G D C
Aaaaliii neee znaajuuu
daaa tuu je kraa aaaj
daaa ih ubiiii jaa
G D Em
njene svetlosti sjaj

25-08-2008 05:51

stijacic kaže:

shone, to ti nisu pravi akordi refrena, veruj mi )!

26-08-2008 21:36

sinisa95 kaže:

Odlican solo,ali u refrenu fali akorda.:headbang

27-12-2008 13:48

ludopace kaže:

odsviraj solo ponovo...i dobro saslusaj sta sviras....nezvuci kako bi trebao....bar ga sviraj zajedno s pjesmom...pa skontaj...aa i fali ti akorda u reff...

13-01-2009 22:34

mega-_-playboy kaže:

ludopace slazem se sa tobom, fali ti nekoliko akorda !

26-01-2009 01:30

D_dur kaže:

e----------------------------------------------------------
h---8-10-10s12---12-10-8-8s10--10-8-7-7s8--7-7-------------
g-9-----------------------------------------7--7s9-9-7 7s9-
d----------------------------------------------------------
a----------------------------------------------------------
e----------------------------------------------------------

e----------------------------------------------------------
h-7-7-7s8---7s8-7s8-7-7------------------------------------
g--9-----------------7-7s9-9-7-7s9-------------------------
d----------------------------------------------------------
a----------------------------------------------------------
e----------------------------------------------------------



moze li vam ovo pomoci

22-05-2009 00:46

Nemanja Markovic kaže:

h-3s7---7-5-7s8---7-3s5---5-3s5----------------------------
Ovaj deo mi ne deluje dobro.

08-07-2009 12:51

misa92 kaže:

a da slucajno ne ide ovako
EmG D C Em G D C
Ali ne znaju da tu je kraj...??????

02-09-2009 17:27

addmir_ kaže:

ej nemanja probaj taj dio odsvirat ,alo brze pa ces vidjet da je sve ok


pozz

09-12-2009 10:37

dajan kaže:

solo je ok ali ref. nije bas naj
fali akorda

17-12-2009 12:44

addmir_ kaže:

ej mozel mi neko reci kako se svira Hm F# i H akordi

hvala unaprijed

31-12-2009 15:25

kiba kaže:

http://www.yumidi.com/akordi-za-gitaru/H/mol

prosto je ne treba ti mnogo vezbanja

14-01-2010 13:57

guiatr93 kaže:

ljudi ako vam trebaju akordi za neku pesmu javite se

20-01-2010 19:58

addmir_ kaže:

ej jel mi mozes napisat ritam i uvod solo i tabove od dvije pjesme???

21-01-2010 11:32

Betty Boop kaže:

a moze jedno pitanje posto sam pocetnik...ovo d je d dur,jel tako??

13-02-2010 22:42

guitarist kaže:

Da d je d-dur

25-04-2010 16:04

nidza021 kaže:

Treba ipak vise dati akcenta na C-dur, kod sviranja ove male lepe pesmice


EmG D C EmG D C EmG D C G D Em
Ali ne znaju, da tu je kraj, da ih ubija njene svetlosi sjaj.

Mnogo bolje zvuci probate! ;)

06-05-2010 12:13

carguitar kaže:

Citat
24-08-2008 21:16
stijacic: fali ti samo jedan akord. trbalo bi ovako da ide:
Em C Em D A
ali ne znaju da tu je kraj.
ako hoces mogu ti ostaviti prave akorde uvoda, ako ti treba.


Evo da i ja pomognem malo:

Akordi od ove pjesme su:

pjevanje:

e D (2x)

refren:
e C
e D A
e C
Gsus2 D e

17-09-2010 01:07

milan997 kaže:

mozda je pitanje glupo ali, koji akordi idu tokom sola?

14-11-2010 20:59

Enid kaže:

drug ovo ti je uredu i ja sviram na ovaj nacin bolje zvuci od bilo kojeg pozdrav.

13-03-2011 22:00

Nyssan kaže:

Moze neki da mi kaze ritam pesme?? Hvala

19-06-2011 13:17

guitarist_junior kaže:

brate ni ja ne znam u kom ritmu se svira ?

17-01-2012 21:56

LoLa kaže:

Kako ćeš znati kad si se tek juče upisa!
Vidićeš za par miseci da je lako.
Evo jedan primjer ima ih mali milijun:
Gori,doli,gori doli ......itd.

18-01-2012 08:15

Milos Ilic kaže:

treba na refrenu am G D am

19-12-2012 17:48