Vino Crveno

  • autor: Princ
  • datum: 10-08-2008 19:01

Pronađi akord!

Ne znaš kako odsvirati neki od akorda pjesmi Vino Crveno? Upiši akord u tražilicu i saznaj!

Traženi akord će se prikazati ovdje

Od istog izvođača

Pregledano 2742 puta
Pregledano 4033 puta
Pregledano 2148 puta
Pregledano 4293 puta
Pregledano 1989 puta
Akordi/Tabovi:
OSVAJACI:Vino Crveno
         , , , , , ,
          , , , , ,
           , , , ,
            , , ,
             , ,
              ,
UVODNI SOLO:2X
Cm                            D# A#       Cm
-----------------------------------------------
---------------11-------------11----11---------
---12-13-12-10----13-12-10-------13----13-12---
10-------------------------13------------------
-----------------------------------------------
-----------------------------------------------
Cm                            D#    A#    Cm
-----------------------------------------------
---------------11----------------11------------
---12-13-12-10----13-12-10----12----10-12------
10-------------------------13-------------12-13
-----------------------------------------------
-----------------------------------------------
Cm
Ova noc ko zivo mastilo

Pa se s neba tesko razliva
              D#
Ala me je upropastilo
    A#          G#        Cm
Ovo vino sto se niz grudi proliva

Cm
morao sam da se napijem

srcu rane da oporavim
                   D#
trazim nekog da se pobijem
     A#       G#        Cm
samo da je na tren ja zaboravim

PRED REFREN:
    G#
kao nemirno more
     A#
moje misli se bore
   Cm
da pobede sve
       
jer vremena su teska
      G#                  A#
a moj zivot ko greska bez nje

REFREN:
     Cm   A#     G      Cm
tece vino crveno venama mojim
         G#         A#       Cm
svaka me casa ljubi kao usne njene
             A#    G        Cm
nek se nocas umire ja se ne bojim
         G#          A#           Cm
zivot mi ne treba da zivim bez te zene

UVODNI SOLO:2X
Cm
jutro nece da me saceka

ludu glavu bar da ohladim
                    D#
bez nje ja sam pola covjeka
     A#        G#       Cm
zato svasta cu nocas da uradim

Cm           
majka neka joj se ne nada

drugove sam svoje poveo
                 D#
sve od mora do Beograda
      A#         G#      Cm
znace kad sam je kuci ja doveo

      G#
cetri kljuca do raja
      A#
a tek korak do kraja
    Cm
sad razdvaja me
Cm
jer vremena su teska
      G#                  A#
a moj zivot ko greska bez nje

Refren:2x
GLAVNI SOLO:
Cm                         A#
------------------------------------------------------
8------8--8------8------8-----------------------------
-----8---------8------8----10---7-10--10---7-10---7-10
--10--------10-----10---------8----------8------8-----
------------------------------------------------------
------------------------------------------------------
G             A#
--------------------------------
-----------8-----8-------------8
10/12-10-8----10---10-8-7-8-10--
--------------------------------
--------------------------------
--------------------------------
Cm
-------------------------------------
-------------------8-----------------
--------7-8-7----8-------------7-8-10
10-8-10-------10--------7-9-10-------
---------------------10--------------
-------------------------------------

Cm                         A#
------------------------------------------------------
8------8--8------8------8-----------------------------
-----8---------8------8----10---7-10--10---7-10---7-10
--10--------10-----10---------8----------8------8-----
------------------------------------------------------
------------------------------------------------------
G             A#
--------------------------------
-----------8-----8--------------
10/12-10-8----10---10-8-7-8-10-7
--------------------------------
--------------------------------
--------------------------------
Cm  A# G
--------------------------------
--------------------------------
--------------------------------
10--8--5-8-5--------------------
-------------8-5-----5----------
-----------------8-6------------

RREEFFRREENN::33xx
dupla mi se slika stvara a vama
Komentari
Još nema komentara