Osvajači

Minut Cutanja

by: Princ

Pronađi akord!

Ne znaš kako odsvirati neki od akorda pjesmi Minut Cutanja? Upiši akord u tražilicu i saznaj!

Traženi akord će se prikazati ovdje

Od istog izvođača

Pregledano 2540 puta
Pregledano 1080 puta
Pregledano 21808 puta
Pregledano 2297 puta
Pregledano 2160 puta
Trebaš ritam za ovu pjesmu? Pronađi ga ovdje
Akordi/Tabovi:
OSVAJACI:Minut cutanja

STROFA:
Am    G      C Am   G     C
Nismo mogli mi biti zajedno
Dm      C    G  F      G      Am
sad kad odlazis vec je svejedno
Am   G       C  Am    G     C
Prekasno je sad snove sanjati
Dm   C    G F        G      Am G
dane buduce s'drugim cekaj ti

REFREN:
          Am  G         Am
Minut cutanja kad ne treba
G       C           G           Am
ja vise nemam snage opet da se dam
G        F        Am
jer ne ide i ne vredi
Am        C          G         Am
sad novim putem idem probaj i ti

STROFA:
Am  G    C  Am     G      Am
Ako pozelis sta je bilo pre
Dm    C     G F      G    Am
vetar secanja nek ti donese
Am   G       C  Am    G     C
Prekasno je sad snove sanjati
Dm   C    G F        G      Am G
dane buduce s'drugim cekaj ti

REFREN:
3STROFA:
Hm       A        G           A
Ne mozes da budes trag svakoj mojoj stopi
Hm      A         G      A
ja idem jer moram godine zivot topi
Hm        A        G       A
Vec vidim da nisam za nove bitke spreman
Hm      A         G       A
al idem jer moram vremena vise nemam

SOLO:
REFREN:2x
Komentari

greenjokerxi kaže:

gdje je solo?
moze li neko staviti solo....

04-10-2009 18:43

tomo86 kaže:

nigdje solo ne nadjem, mozda zna netko?

17-01-2012 00:01

VladanBL kaže:

e -----------------------------------------------------------------------------------------|----------------------------------------------------8---7---8/10--(9)--8---
H ---------10-----10-------10------------------10--------8---------------------------|--------10-----10-------10-------------10---------------------------------
G ----/9------9--------9--------9----------/9----------9-------10---9----7----9----|----/9------9--------9--------9------/9------9------------------------------


Evo nešto otprilike ovako , fino zvuči, ponavlja se dva puta ,drugi puta se može svirati ovaj ton (cis) na 9 pragu e žice, ja tako sviram i lejpše mi zvuči.. Početnik sam ajmo reći, sviram godinu i po, pomagao sam se cover-om pa mozda i ima grešaka i nije možda baš kao original :D

07-03-2015 12:43

VladanBL kaže:

e -----------------------------------------------------------------------------------------
H ---------10-----10-------10------------------10--------8---------------------------
G ----/9------9--------9--------9----------/9----------9-------10---9----7----9-----

e----------------------------------------------------8---7---8/10--(9)--8---
H---------10-----10-------10-------------10---------------------------------
G----/9------9--------9--------9------/9------9------------------------------

07-03-2015 12:48