Sve Jos Mirise Na Nju(solo)

  • autor: faLLen_angel
  • datum: 21-04-2008 22:22

Pronađi akord!

Ne znaš kako odsvirati neki od akorda pjesmi Sve Jos Mirise Na Nju(solo)? Upiši akord u tražilicu i saznaj!

Traženi akord će se prikazati ovdje

Od istog izvođača

Pregledano 10134 puta
Pregledano 28705 puta
Pregledano 28573 puta
Pregledano 2471 puta
Pregledano 9448 puta
Akordi/Tabovi:
           sve jos mirise na nju

solo 1
E||-----------------------------------------------------|
B||------6-----8r6--------------------------------------|
G||--7-5---5---------7r5-----5~-----5h7--5~-------------|
D||----------------------8-------8-----------8-5--5-----|
A||--------------------------------------------------8--|
E||-----------------------------------------------------|
                                                   
E||-----------------------------------------------------|
B||-----------------------------------------------------|
G||-----------------------------------------------------|
D||--5~-----8h7h8h7h5-----------------------------------|
A||--------------------8--------------------------3h5~--|
E||-----------------------8b9r8-6----6h8---6-8-6--------|
                                                     
E||--------------------------------------------8-10-----|
B||-----8---10---11--10b12r10-------8--11b13--------11--|
G||--7----7----7----------------------------------------|
D||-----------------------------------------------------|
A||-----------------------------------------------------|
E||-----------------------------------------------------|
                                                                 
E||--13b15----11--10-------------------------10h11h10--||
B||-------------------13--11--10-----------------------||
G||-------------------------------12---11~-------------||
D||----------------------------------------------------||
A||----------------------------------------------------||
E||----------------------------------------------------||
Komentari

guitar_hero kaže:

senzacionalno

06-12-2009 20:56

LiTTle_shad0w kaže:

mora da imamo razlicite verzije... jer se solo razliku vec u prvih par tonova... :S ti si napisao 7-5-6-5... a meni je 7-5-6-bend6-bendani_vibrato6-spusti_nazad_na_6+vibrato...

26-12-2009 14:18

Rhcp777 kaže:

e, ima ko tab za 2 solo?

02-01-2010 17:51

billy_kun kaže:

nije loše

07-04-2010 11:23

guitar player kaže:

e sta u solu znaci oznaka r

16-01-2011 14:36

vuka21 kaže:

neznam na koji se solo odi misli, al ako se misli na prvi solo tamo na minut pisme, ovo je apsolutno krivo, ako je drugi solo onda neznam, al ovo prvi solo sigurno nije!!!

25-01-2011 16:35

Aleksa652 kaže:

sta je bre ovo?! ovo nije ni prvi ni drugi solo,ovo su neke madjije

04-03-2011 14:20

vuka21 kaže:

a bas

17-06-2011 14:24

armin313 kaže:

mozel mi neko objasnit sta znaci h i r

22-11-2011 20:19

JuraGitara222 kaže:

h - hammer-on
r - release bend

23-12-2011 00:01

Nikkola_rmt kaže:

Nevalja

09-06-2012 15:12

vaka kaže:

na videu je solidno odsvirano al tab nevalja nista

03-11-2012 12:12