Sarajevo Ljubavi Moja

  • autor: faLLen_angel
  • datum: 21-04-2008 13:15

Pronađi akord!

Ne znaš kako odsvirati neki od akorda pjesmi Sarajevo Ljubavi Moja? Upiši akord u tražilicu i saznaj!

Traženi akord će se prikazati ovdje

Od istog izvođača

Pregledano 14412 puta
Pregledano 2628 puta
Pregledano 13307 puta
Pregledano 19049 puta
Pregledano 57307 puta
Akordi/Tabovi:
    sarajevo,ljubavi moja

E||---------------------------------|
B||---------------------------------|
G||---------------------------------|
D||------------7--9--10--9h7-----9--|
A||--7--9--10----------------10-----|
E||---------------------------------|
                                                                           
E||--15-14-14-12-12-----------------|
B||-----------------15-15-13-13-12--|
G||---------------------------------|
D||---------------------------------|
A||---------------------------------|
E||---------------------------------|

E||---------------------------------|\
B||--12----------------------12-12--| \
G||-----14-14-12-12-14----14--------|  \ 2x
D||---------------------------------|  /             
A||---------------------------------| /
E||---------------------------------|/

                                                       
E||--12--11------10--9-------------|
B||----------12--------10--13--12--|
G||--------------------------------|
D||--------------------------------|
A||--------------------------------|
E||--------------------------------|

E||---------------------||
B||---------------------||
G||---------------------||
D||--9h7----7-----------||
A||------10----10h9--7--||
E||---------------------||


Em
Zajedno smo rasli, grade ja i ti,
                              B
isto plavo nebo poklonilo nam stih,
Am                          Em
ispod Trebevica sanjali smo sne,
           H                  Em
ko ce brze rasti, ko ce lepsi biti.

ref.

G            Bm       E7   G
Bilo gdje da krenem o tebi sanjam,
G         Em       C
putevi me svi tebi vode,
Am            C7/5       C        Am
cekam s nekom ceznjom na svijetla tvoja
D                G
Sarajevo ljubavi moja.
Komentari
Još nema komentara