Jedne Noci U Decembru

  • autor: faLLen_angel
  • datum: 15-04-2008 18:13

Pronađi akord!

Ne znaš kako odsvirati neki od akorda pjesmi Jedne Noci U Decembru? Upiši akord u tražilicu i saznaj!

Traženi akord će se prikazati ovdje

Od istog izvođača

Pregledano 10306 puta
Pregledano 34846 puta
Pregledano 1277 puta
Pregledano 57192 puta
Pregledano 2620 puta
Akordi/Tabovi:
         jedne noci u decembru

   Dm                                 C
E||--10----10--10--13-12h13---12h10---12--|
B||---------------------------------------|
G||---------------------------------------|
D||---------------------------------------|
A||---------------------------------------|
E||---------------------------------------|

   A7                                 Dm                                   
E||--12---12--12--15--13----15h13-12--13--|
B||---------------------------------------|
G||---------------------------------------|
D||---------------------------------------|
A||---------------------------------------|
E||---------------------------------------|

   B                                  Gm
E||--13--13--13---12----------------------|
B||-------------------15----13h14h13--11--|
G||---------------------------------------|
D||---------------------------------------|
A||---------------------------------------|
E||---------------------------------------|
         
   A7                               Dm                               
E||--------------------------------------||
B||--14--15--14h15h14-11------14--14h15--||
G||-----------------------14-------------||
D||--------------------------------------||
A||--------------------------------------||
E||--------------------------------------||


Dm           Gm
Jedne noci u decembru,
C7                 F   A7
kad je bila hladna zima.
Dm             Gm       
Cuvao sam tebe Branka,
A7              Dm 
cuvao sam naseg sina.

E||-----------10-------10-13-------13-17--|
B||--------10-------10----------15--------|
G||-----10-------10----------14-----------|
D||--12-----------------------------------|
A||---------------------------------------|
E||---------------------------------------|

ref.

Dm             C   
Ali niceg nije bilo
A7              Dm
osim one hladne noci,
B                Gm   
mislio sam samo draga,
A7               Dm
kad cu opet kuci doci.
Komentari
Još nema komentara