Sinoć Sam Pola Kafane Popio

  • autor: faLLen_angel
  • datum: 29-03-2008 20:12

Pronađi akord!

Ne znaš kako odsvirati neki od akorda pjesmi Sinoć Sam Pola Kafane Popio? Upiši akord u tražilicu i saznaj!

Traženi akord će se prikazati ovdje

Od istog izvođača

Pregledano 9588 puta
Pregledano 1970 puta
Pregledano 43999 puta
Pregledano 6468 puta
Pregledano 2060 puta
Akordi/Tabovi:
           zeljko bebek
          sinoc sam pola kafane popio


E||--12----12-13-15-13-12-13------------12------------|
B||---------------------------15--15-13-----15-13-----|
G||-----------------------------------------------14--|
D||---------------------------------------------------|
A||---------------------------------------------------|
E||---------------------------------------------------|

                                                   
E||--------------12--------------|\
B||--15----15-13-----15-13-------| \
G||--------------------------14--|  \ 2x
D||------------------------------|  /
A||------------------------------| /
E||------------------------------|/


E||------------------------------------------------|
B||------------------------13--13-12--12-------10--|
G||--12-14-14----14-14-------------------10-12-----|
D||-----------15-------14--------------------------|
A||------------------------------------------------|
E||------------------------------------------------|


Am
Covjek prosto pobrljavi
G              Dm
kad se nadje u ljubavi
Am
na oba oka ocoravi
G            Dm  G Am
i prijatelje zaboravi.
E||--------------------------------|
B||--------------------------------|
G||-----------------5-5-4-4--------|
D||--5-7-7---7-7--------------5-7--|
A||--------8-----7----------8------|
E||--------------------------------|

ref.

Dm               Am
Sinoc sam, sinoc sam
G               Am
pola kafane popio
Dm                Am
zbog tebe, zbog tebe
G              Am
nisam oka sklopio.
Komentari
Još nema komentara