Glasno glasnije

  • autor:
  • datum: 25-03-2008 09:56

Pronađi akord!

Ne znaš kako odsvirati neki od akorda pjesmi Glasno glasnije? Upiši akord u tražilicu i saznaj!

Traženi akord će se prikazati ovdje

Od istog izvođača

Pregledano 1687 puta
Pregledano 3685 puta
Pregledano 1699 puta
Pregledano 2509 puta
Pregledano 4966 puta
Akordi/Tabovi:
Transkripcija: Vai


Intro :
E||-------------------------------|-------------------------------|
B||-------------------------------|-------------------------------|
G||-------------------------------|-------------------------------|
D||--6----------6-----------------|-------------------------------|
A||--4--4-4-4-4-4--4-4-4-4-7-6----|--7----------7----------7-6----|
E||----------------------------7--|--5--5-5-5-5-5--5-5-5-5-----7--|

------------------------------|---------------------------||
------------------------------|---------------------------||
------------------------------|---------------------------||
------------------------------|------------------4----5---||
--4------7-6----6------7-6----|--7------7-6------2----3---||
--2--2-2-----7--4--4-4-----7--|--5--5-5-----7-------------||


C#5
Imam usi od betona
E5*
dusu copora
A5         F#5    G#5
hektolitar rock n roll-a
C#5           prelaz  (c# H)
ispod tjemena
C#5
nesto fali u mojoj glavi
E5*
budi ubijeden
A5        F#5   G#5
ako si na mojoj strani
      A5                H5
nikad neces biti povrijeden

REF:
I samo
C#5
Glasno, glasnije
A5
ja neznam drugacije
F#5      G#5       C#5   prelaz (C# H)
ja nezna-am drugacije
C#5
rokaj do temelja
A5
od glave ka petama
F#5    G#5    A5
glasno, glasnije
H5               C#5
ja neznam drugacije

Jos ove noci
ti ces moci
da mi vjerujes
jer ti moras
da se rolas
i da ludujes

Nesto fali
u mojoj glavi
budi ubijeden
ako si na mojoj strani
nikad neces biti povrijeden

________
Napomena:
Gde je napisano prelaz, moze se odsvirati kao 5-ice ili samo na jednoj
(5-oj zici), poneki akordi se vise puta ponavljaju kao na primer u prelazu
(C# H) H se svira 4 puta, ali nisam to obelezavao ko odslusa pesmu shvatice
i sam kako da odsvira.

E5* se svira na 5-oj zici 7-om pragu.
Komentari

Dark Master kaže:

super

13-03-2010 21:49