Kazi Mi Kaži(uvod)

  • autor: faLLen_angel
  • datum: 05-03-2008 12:13

Pronađi akord!

Ne znaš kako odsvirati neki od akorda pjesmi Kazi Mi Kaži(uvod)? Upiši akord u tražilicu i saznaj!

Traženi akord će se prikazati ovdje

Od istog izvođača

Pregledano 26357 puta
Pregledano 26352 puta
Pregledano 18925 puta
Pregledano 33777 puta
Pregledano 7731 puta
Akordi/Tabovi:
KAZI MI KAZI                                 

                                                           
E||----------------12--12--17--14---|------14-------------|
B||-----14--14-14--14--14------15---|------15-------------|
G||-----14--14-14-------------------|---------------------|
D||---------------------------------|---------------------|
A||---------------------------------|---------------------|
E||---------------------------------|---------------------|


                                                               
E||------17-17-17--17--------------------|----------------|
B||------19-19-19--19--19-----------17---|------17--------|
G||--------------------19--------16-18---|------18--------|
D||--------------------------19----------|----------------|
A||--------------------------------------|----------------|
E||--------------------------------------|----------------|


                                                       
E||---------------------14-------|------------------------|
B||-------------15--17--15--15---|---------15-------------|
G||-----18-18---16--18------16---|------16----------------|
D||-----19-19--------------------|------------------------|
A||------------------------------|------------------------|
E||------------------------------|------------------------|


                                                       
E||-----------------12---------9---|-------9--------------|
B||-----15--15--14--14--15--10-----|-------10-------------|
G||-----16--16--14------16---------|----------------------|
D||--------------------------------|----------------------|
A||--------------------------------|----------------------|
E||--------------------------------|----------------------|
Komentari
Još nema komentara