Neki Novi Klinci

  • autor:
  • datum: 03-05-2007 14:47

Pronađi akord!

Ne znaš kako odsvirati neki od akorda pjesmi Neki Novi Klinci? Upiši akord u tražilicu i saznaj!

Traženi akord će se prikazati ovdje

Od istog izvođača

Pregledano 9528 puta
Pregledano 15544 puta
Pregledano 15101 puta
Pregledano 5888 puta
Pregledano 5625 puta
Akordi/Tabovi:
A7                                Dmsus4  Dm                 B
  slide
-------------|-------------------|-------|------------------|-----------------
-------------|-------------------|-------|------------------|-------18--17--15
2-------14---|--------12--10--9--|--12---|---10--10--12--14-|--15-------------
-------------|-------------------|-------|------------------|-----------------
-------------|-------------------|-------|------------------|-----------------
-------------|-------------------|-------|------------------|-----------------

A7                Dm
|-----------------|-------------|
|-----17--15--14--|--15---------|
|-14--------------|-------------|
|-----------------|-------------|
|-----------------|-------------|
|-----------------|-------------|

     Dm           F           C      Cadd4     C
Moj deda vec dugo ore nebeske njive
     Gm                                    Dm
Ali baka jos cuva sve stvari i sliku naseg sveca
     Dm          F           C            Cadd4  C
Na dan kad sam rođen tu je posađen orah
     Gm                                      Dm
I u avliji pod gustom krosnjom sad igraju se deca

          Bmaj7             E       A         Dm
Neki novi klinci, neki novi klinci, neki novi klinci

                sl.
---------------/--10---9---8---7---6----
--3---5---6-----------------------------
----------------------------------------
----------------------------------------
----------------------------------------
----------------------------------------

          Bmaj7             E       A         Gm       Gm  A(m ?)  B  C
Neki novi klinci, neki novi klinci, neki novi klinci

   Kroz maglu treperi devet sveca na torti
   Kad sam dobio par mandarina i malog belog zeca
   U maju jos uvek zriju komsinske baste
   Ali tresnje i zelene kajsije kradu druga deca
   
   Moj drugar Milutin, druga klupa do vrata
   Ima sina od cetiri i po i uci ga da peca
   Ponekad ga sretnem, mahne kroz prozor kola
   A u porti (?) za loptom sad jurcaju neka druga deca
   
   A ja, ja se kockam s prevarantom zivotom
   Iz rukava on svakoga dana izvuce nekog keca
   I stariji mi kazu, sad si u pravom dobu
   A u ulici Jovana Cvijica rastu druga deca
Komentari

Ralecaster kaže:

Super je...

05-06-2009 12:15

alaalin kaže:

Bmaj 7.. jel to x13131..ili ??

19-03-2010 16:10

John159 kaže:

Zna li ko ritam? Ovo mi je odlicna pesma, ali ne znam ritam. POMOC

14-05-2011 15:12

kileagram kaže:

Bmaj7-bare u prvom polju,G žica u drugom,D žica u trećem i B žica u trećem.

02-02-2013 14:13