Badnje Veče

  • autor:
  • datum: 03-05-2007 14:45

Pronađi akord!

Ne znaš kako odsvirati neki od akorda pjesmi Badnje Veče? Upiši akord u tražilicu i saznaj!

Traženi akord će se prikazati ovdje

Od istog izvođača

Pregledano 3184 puta
Pregledano 2465 puta
Pregledano 15099 puta
Pregledano 2421 puta
Pregledano 6448 puta
Akordi/Tabovi:
C                Dm/F    G        C                F     G

e|------0---------|0---------------|------0---------|----------------
H|----1---------1-|----3---1---0---|1-------------1-|----------------
G|--0---------0---|--2---2-------0-|----0-------0---|2-----0-------0-
D|2---------2-----|----------0-----|--2-------2-----|----3-0-----0---
A|3---------------|----------------|3---------------|--3-------02----
E|----------------|1-------3-------|----------------|1-----3---------


  C                Em               Dm               G

e|----------------|----------------|------1-------1-|----------------
H|------1-------1-|------0-------0-|----3-------3---|------01--0-----
G|----0-------0---|----0-------0---|--2-------2-----|----0-00--0-----
D|--2-------2-----|--2-------2-----|0---------------|--0---02--0-----
A|3---------------|----------------|----------------|----------------
E|----------------|0---------------|----------------|3-------------3-

  Kao davni        greh             uvek mi se       ista javljas

  C                Em               Dm               G

e|----------------|----------------|------1-------1-|----------------
H|------1-------1-|0-----0-------0-|----3-------3---|------0---------
G|----0-------0---|----0-------0---|--2-------2-----|----0-----------
D|--2-------2-----|--2-------2-----|0---------------|--0-------0-----
A|3---------------|----------------|----------------|----------------
E|----------------|----------------|----------------|3-----------3-4-

  Odzvanja ti      smeh,            cipele         u prozor stavljas

  Am               Em/H             F                Fm6/D

e|----------------|----------0-----|------1-------1-|------1-----1---
H|------1-------1-|--------0---0---|----1-------1---|----1-----1-----
G|----2-------2---|0-----0-------0-|--2-------2-----|--1-----1-----1-
D|--2-------2-----|----2-----------|3---------------|0---------------
A|0---------------|--2-------------|----------------|----------------
E|----------------|----------------|----------------|----------------

           I vecno sanjas,   svetom putujes      bez putovanja

  C                G                C                Dm/F    G

e|----------------|----------------|------0---------|0---------------
H|------1-------1-|------0-----1-0-|1-------------1-|----3---1---0---
G|----0-------0---|----0-------0-0-|----0-------0---|--2---2-------0-
D|--2-------2-----|--0-------0-----|--2-------2-----|----------0-----
A|3---------------|----------------|3---------------|----------------
E|----------------|3---------------|----------------|1-------3-------

          a badnje vece       prolazi...

   Mogla si mi, bas i reci neke reci nagle
   Oci su mi, znas, pune one iste magle
   Ali, suprotnost susta,
   Sad u meni tuga koren pusta
   A badnje vece prolazi

  C                C

e|----------------|----------------
H|------1-------1-|1-----1-------1-
G|----0-------0---|----0-------0---
D|--2-------2-----|--2-------02----
A|3---------------|3---------------
E|----------------|----------------

  (..lazi)

  F                Dm7              G                     C/E

e|------1-------1-|------1-------1-|----------------|----------------
H|----1-------1---|----1-------1---|------0-------0-|0----1----------
G|--2-------2-----|--2-------2-----|----0-------0---|----00-----0----
D|3---------------|0---------------|--0-------0-----|--0--2---2------
A|----------------|----------------|----------------|----------------
E|----------------|----------------|3---------------|3----0----------

             To je bilo        nase zadnje

  F                C       Dm       G           Am   G/H   C

e|----------------|--------------1-|----------------|------0---------
H|----------------|------1-----3---|0-----0-----1---|3---------1-----
G|2-----2-------2-|----0-----2-----|----0---0-----0-|----0---0---0---
D|----3-------3---|--2-----0-------|--0-------0-----|--0-----------2-
A|--3-------3-----|3---------------|------------0---|2-----3---------
E|1---------------|----------------|3---------------|----------------

          Sad opet zvona   zvone    slusam to

  F                Dm7              G                      C/E

e|----------------|------1-------1-|----------------|----------------
H|----------------|----1-------1---|0-----0-------0-|0-----1---------
G|2-----2-------2-|--2-------2-----|----0-------0---|----0-------0---
D|----3-------3---|0---------------|--0-------0-----|--0-------2---2-
A|--3-------3-----|----------------|----------------|--------3-------
E|1---------------|----------------|3---------------|3-----0---------

          Ne, nije svako       vece badnje

  F                C       Dm       G                Am      G/H

e|----------------|--------------1-|----------------|----------------
H|----------------|------1-----3---|0-----0-------0-|1-----1-3-----3-
G|2-----2-------2-|----0-----2-----|----0-------0---|----2-------0---
D|----3-------3---|--2-----0-------|--0-------0-----|--2-------0-----
A|--3-------3-----|3---------------|----------------|0-------2-------
E|1---------------|----------------|3---------------|----------------

            Al ovo danas,    sasvim slucajno


  C                Dm/F    G        C                F     G

e|------0---------|0---------------|------0---------|----------------
H|1-------------1-|----3---1---0---|1-------------1-|----------------
G|----0-------0---|--2---2-------0-|----0-------0---|2-----0-------0-
D|--2-------2-----|----------0-----|--2-------2-----|----3-0-----0---
A|3---------------|----------------|3---------------|--3-------02----
E|----------------|1-------3-------|----------------|1-----3---------

  badnje je

   U poslednji cas, kao uvek na to vece
   Gospođa do nas unucima kolac pece
   U mojoj sobi
   Samo stari veker vreme drobi
   I badnje vece prolazi
   
   To je bilo nase zadnje
   Sad opet zvona zvone, slusam to
   Ne, nije svako vece badnje
   Al, ovo danas, sasvim slucajno
   Badnje je
Komentari
Još nema komentara