Webshop Music Centar

Đorđe Balašević

Ringispil

by:

Pronađi akord!

Ne znaš kako odsvirati neki od akorda pjesmi Ringispil? Upiši akord u tražilicu i saznaj!

Traženi akord će se prikazati ovdje

Od istog izvođača

Pregledano 8812 puta
Pregledano 60144 puta
Pregledano 10929 puta
Pregledano 4352 puta
Pregledano 2884 puta
Trebaš ritam za ovu pjesmu? Pronađi ga ovdje
Akordi/Tabovi:
Em      /H       /E      /H       Am      /G       /F#     /H

e|----------------|----------------|----------------|----------------
H|--------0-------|--------0-------|3---1---1---0---|----------------
G|----0-----------|0---0-2---0-----|----------------|2---------------
D|2-4---2---------|--4---------4-2-|----------------|----------------
A|----------------|----------------|----------------|----------------
E|----------------|----------------|----------------|----------------

  Em      /H       C#-5    H/D#     Em      /H       /E  /H  /E  /D#

e|----------------|----------------|----------------|----------------
H|--------0-------|----------------|----------------|----------------
G|0---0-2---0-----|0-----0---------|----------------|----------------
D|--4---------4-2-|--4-2---4-2-1-4-|2---------------|----------------
A|----------------|----------------|----------------|----------------
E|----------------|----------------|----------------|----------------

(  C#-5 = x4565x  ;  H/D# = x6876x  )


D       /A         /D     H
Curi od jutros, od cetiri-pet,

Em       /H/G  C      /G
resilo nebo da potopi svet

D          /A  H
Nad gradom danima

             Em  /H  /E /H /E /D#
Vise iste kulise

   Poliva kisa, al to joj je zanat
   Ma sve mi je ravno k'o severni Banat
   Manje vise
   I sa kisom i bez kise
   
   Vreme se vuce ko teretni voz
   Gdje li je veceras da promolim nos
   klasika, konobar i "Cafe Macciato"
   (dva secera molim)
   
   Prolazi vreme al to mu je manir
   Ma sve je to plitko k'o plehani tanjir
   Izes sliku, nigde jedra na vidiku
   Nigdje jedra na vidiku

C/E D/F# G                            D
I daj    okreni taj ringispil u mojoj glavi

          H/D#        Em  /H
To ne zna nitko, samo ti

    G              D
Bez tebe, drveni konjici

C/E   D/F#
tuzno stoje

G                /H /C   D    /A
Dođi, iz plave boce se pojavi

    /D    H/D#      Em  /H
Bar jednu zelju ispuni

  G                 D     H
I dodaj svjetu malo boje, cudo moje

   Vecer se klati k'o prezreli klip
   Teska vremena, a ja tezak tip
   Pa gravitacija zacas uzima svoje
   
   Slab sam ja igrac za subotnje guzve
   Al' shvatam pomalo te pokretne spuzve
   Netko pijan lakse zivot odrobija
   
   Deder okreni taj ringispil u mojoj glavi
   To ne zna nitko, samo ti
   Bez tebe drveni konjici
   Tuzno stoje
   
   Je, dođi, iz plave boce se pojavi
   Bar jednu zelju ispuni
   I dodaj svetu malo boje, cudo moje
   
   Sustajem, odustajem
       (...Daj okreni...)
   Pritiska me kao pegla
       (...taj ringispil u mojoj glavi...)
   Javi se, pojavi se
       (...to ne zna nitko, samo ti...)
   Dodaj svetu malo vergla
       (...bez tebe drveni konjici tuzno stoje...)
   
   Nekad si me cudila
       (...Je, dođi...)
   Danas bi mi tako dobro legla
       (...Iz plave boce se pojavi...)
   Dodaj malo ludila
       (...Bar jednu zelju ispuni...)
   Dodaj svetu -
       (...I dodaj svetu malo boje, cudo moje...)
   
   I daj okreni...
Komentari

amila_loda kaže:

ja ne sviram ove akorde.... :S

03-07-2009 12:20

lipov cenzura kaže:

daj te akorde sto ti sviras

14-07-2011 12:54