Pukni Pusko

  • autor: Johnny Bravo
  • datum: 14-10-2007 15:43

Pronađi akord!

Ne znaš kako odsvirati neki od akorda pjesmi Pukni Pusko? Upiši akord u tražilicu i saznaj!

Traženi akord će se prikazati ovdje

Od istog izvođača

Pregledano 7693 puta
Pregledano 16950 puta
Pregledano 14043 puta
Pregledano 15767 puta
Pregledano 10028 puta
Akordi/Tabovi:
Pukni pusko - Thompson

Uvod: Gitara 1, gitara 2 i Gitara 3 u isto vrijeme sviraju

Gitara 1

--0-0-0-0-0-0-0---------------------------------------------------|
------------------3-3-3-3-1-1-1---0-0-0-0-0-0-0-------------------|
--------------------------------------------------2-2-2-2-2-2-2---|
------------------------------------------------------------------|
------------------------------------------------------------------|
------------------------------------------------------------------|


 
------------------------------------------------------------------|
--0-0-0-0---------------------------------------------------------|
----------2-2-2-2-2-2-2-2-0-0-0---2-2-2-2-2-2-2---2-2-2-2-2-2-2---|
------------------------------------------------------------------|
------------------------------------------------------------------|
------------------------------------------------------------------|



--0-0-0-0-0-0-0---------------------------------------------------|
------------------3-3-3-3-1-1-1---0-0-0-0-0-0-0-------------------|
--------------------------------------------------2-2-2-2-2-2-2---|
------------------------------------------------------------------|
------------------------------------------------------------------|
------------------------------------------------------------------|



------------------------------------------------------------------|
--0-0-0-0---------------------------------------------------------|
----------2-2-2-2-2-2-2-2-0-0-0---2-2-2-2-2-2-2---2-2-2-2-2-2-2---|
------------------------------------------------------------------|
------------------------------------------------------------------|
------------------------------------------------------------------|

Gitara 2

--12-12-12-12-12-12-12-12-10-10-10-10-8-8-8-8-7-
------------------------------------------------
------------------------------------------------
------------------------------------------------
------------------------------------------------
------------------------------------------------



7-7-7-7-7-7-7-7-5-5-5-5-5-5-5-5-|
--------------------------------|
--------------------------------|
--------------------------------|
--------------------------------|
--------------------------------|



 
--7-7-7-7-5-5-5-5-5-5-5-5-3-3-3-3-5-5-5-5-5-5-5-5-5-5-5-5-5-5-5-5-|
------------------------------------------------------------------|
------------------------------------------------------------------|
------------------------------------------------------------------|
------------------------------------------------------------------|
------------------------------------------------------------------|


 
--12-12-12-12-12-12-12-12-10-10-10-10-8-8-8-8-
----------------------------------------------
----------------------------------------------
----------------------------------------------
----------------------------------------------
----------------------------------------------

7-7-7-7-7-7-7-7-5-5-5-5-5-5-5-5-|
--------------------------------|
--------------------------------|
--------------------------------|
--------------------------------|
--------------------------------|
 
--7-7-7-7-5-5-5-5-5-5-5-5-3-3-3-3-5-5-5-5-5-5-5-5-5-5-5-5-5-5-5-5-|
------------------------------------------------------------------|
------------------------------------------------------------------|
------------------------------------------------------------------|
------------------------------------------------------------------|
------------------------------------------------------------------|

Gitara 3


E||-------------------|--12----10---8--7----5--L----|
B||-------------------|-----------------------------|
G||-------------------|-----------------------------|
D||-------------------|-----------------------------|
A||-------------------|-----------------------------|
E||-------------------|-----------------------------|


   
--7--5---5--3--5--L----5-----|--12----10---8--7----5--L----|
-----------------------------|-----------------------------|
-----------------------------|-----------------------------|
-----------------------------|-----------------------------|
-----------------------------|-----------------------------|
-----------------------------|-----------------------------|


 
--7--5---5--3--5--L----5-----|
-----------------------------|
-----------------------------|
-----------------------------|
-----------------------------|
-----------------------------|

                     
 
--5-5-5-5-5-5-5-5-5-5-5-5-5-5-5-5-5-5-5-5-5-5-5-5-|--5--------------------|
--------------------------------------------------|-----------------------|
--------------------------------------------------|-----------------------|
--------------------------------------------------|-----------------------|
--------------------------------------------------|-----------------------|
--------------------------------------------------|-----------------------|

Am            G
Sanjam dragu, haljina joj bijela
Am        G
u daljini tuzna glazba svira
Am            G
sta da radim, sve bi dao sada
Am           G           Am
mjesto mraka da me ona dira

Strah me sada da se ne probudim
novu rosu zorom da ne vidim
ej, sudbino, evo tebe k meni
Am         G              Am  A
odnesi me toj voljenoj zeni

Riff 1

E-------
B-------
G-------
D-------
A-0-2-3-
E-------


Ref.
Dm            Am
Pukni, pusko, poludicu
Dm          Am       Riff 1
nema drage, ostaricu
C             G                     X2
pukni, pusko, nek me nema
Am        G                 Am A
evo zore, ko zna sta se sprema

Uvod

A#m           G#
Ej, mjesece. sva si moja nada
A#m             G#
preklinjem te, pomozi mi sada
A#m        G#
proklete su za me hladne noci
A#m           G#               A#m A#
gdje da idem, gdje jos mogu poci

Ref.

Riff 2

E-------
B-------
G-------
D-------
A-----4-
E-6-8---

D#m            A#m
Pukni, pusko, poludicu
D#m          A#m       Riff 2
nema drage, ostaricu
C#             G#                     X2
pukni, pusko, nek me nema
A#m        G#                 A#m A#
evo zore, ko zna sta se sprema

Kraj: Gitara 1, Gitara 2 i Gitara 3 u isto vrijeme sviraju kao i na uvodu

Gitara 1

----1-1-1-1-1-1-1---------------------------------------------------|
--------------------4-4-4-4-2-2-2---1-1-1-1-1-1-1-------------------|
----------------------------------------------------3-3-3-3-3-3-3---|
--------------------------------------------------------------------|
--------------------------------------------------------------------|
--------------------------------------------------------------------|



--------------------------------------------------------------------|
----1-1-1-1---------------------------------------------------------|
------------3-3-3-3-3-3-3-3-1-1-1---3-3-3-3-3-3-3---3-3-3-3-3-3-3---|
--------------------------------------------------------------------|
--------------------------------------------------------------------|
--------------------------------------------------------------------|



----1-1-1-1-1-1-1---------------------------------------------------|
--------------------4-4-4-4-2-2-2---1-1-1-1-1-1-1-------------------|
----------------------------------------------------3-3-3-3-3-3-3---|
--------------------------------------------------------------------|
--------------------------------------------------------------------|
--------------------------------------------------------------------|



--------------------------------------------------------------------|
----1-1-1-1---------------------------------------------------------|
------------3-3-3-3-3-3-3-3-1-1-1---3-3-3-3-3-3-3---3-3-3-3-3-3-3---|
--------------------------------------------------------------------|
--------------------------------------------------------------------|
--------------------------------------------------------------------|

Gitara 2

 
--13-13-13-13-13-13-13-13-11-11-11-11-9-9-9-9-|
----------------------------------------------|
----------------------------------------------|
----------------------------------------------|
----------------------------------------------|
----------------------------------------------|

8-8-8-8-8-8-8-8-6-6-6-6-6-6-6-6-|
--------------------------------|
--------------------------------|
--------------------------------|
--------------------------------|
--------------------------------|

   
--8-8-8-8-6-6-6-6-6-6-6-6-4-4-4-4-6-6-6-6-6-6-6-6-6-6-6-6-6-6-6-6-|
------------------------------------------------------------------|
------------------------------------------------------------------|
------------------------------------------------------------------|
------------------------------------------------------------------|
------------------------------------------------------------------|


 
--13-13-13-13-13-13-13-13-11-11-11-11-9-9-9-9-|
----------------------------------------------|
----------------------------------------------|
----------------------------------------------|
----------------------------------------------|
----------------------------------------------|

8-8-8-8-8-8-8-8-6-6-6-6-6-6-6-6-|
--------------------------------|
--------------------------------|
--------------------------------|
--------------------------------|
--------------------------------|

   
--8-8-8-8-6-6-6-6-6-6-6-6-4-4-4-4-6-6-6-6-6-6-6-6-6-6-6-6-6-6-6-6-|
------------------------------------------------------------------|
------------------------------------------------------------------|
------------------------------------------------------------------|
------------------------------------------------------------------|
------------------------------------------------------------------|



--6-6-6-6-6-6-6-6-6-6-6-6-6-6-6-6-6-6-6-6-6-6-6-6-6-6-6-6-6-6-6-6-|
------------------------------------------------------------------|
------------------------------------------------------------------|
------------------------------------------------------------------|
------------------------------------------------------------------|
------------------------------------------------------------------|


         
--6-6-6-6-6-6-6-6-6-6-6-6-6-6-6-6-6-6-6-6-6-6-6-6-6-6-6-6-6-6-6-6-|----||
------------------------------------------------------------------|----||
------------------------------------------------------------------|----||
------------------------------------------------------------------|----||
------------------------------------------------------------------|----||
------------------------------------------------------------------|----||

Gitara 3


--13----11---9--8----6--L----|--8--6---6--4--6--L----6-----|
-----------------------------|-----------------------------|
-----------------------------|-----------------------------|
-----------------------------|-----------------------------|
-----------------------------|-----------------------------|
-----------------------------|-----------------------------|


   
--13----11---9--8----6--L----|--8--6---6--4--6--L----6-----|
-----------------------------|-----------------------------|
-----------------------------|-----------------------------|
-----------------------------|-----------------------------|
-----------------------------|-----------------------------|
-----------------------------|-----------------------------|


 
------------------------------------------------------------------|
------------------------------------------------------------------|
--3-3-3-3-3-3-3-3-3-3-3-3-3-3-3-3-3-3-3-3-3-3-3-3-3-3-3-3-3-3-3-3-|
------------------------------------------------------------------|
------------------------------------------------------------------|
------------------------------------------------------------------|
Komentari

bojanoo7 kaže:

u madulaciji su akordi samo za pola stepena a ne mijenja se nijedan akord

31-10-2007 17:46