Zenica Blues

  • autor:
  • datum: 01-05-2007 11:00

Pronađi akord!

Ne znaš kako odsvirati neki od akorda pjesmi Zenica Blues? Upiši akord u tražilicu i saznaj!

Traženi akord će se prikazati ovdje

Od istog izvođača

Pregledano 6173 puta
Pregledano 4777 puta
Pregledano 56629 puta
Pregledano 19830 puta
Pregledano 4326 puta
Akordi/Tabovi:
                                         G7

e-----|----------------|----2----------|--3-3-3---3-3---|3-3-3-3--
H-----|----------------|----3----------|----66-----6-6--|6----6--6
G-----|----------------|----2----------|----4---------4-|4--------
D-----|5---5-5-7-7-5-4-|5---0----0-2-4-|----------------|---------
A-5-5-|----------------|---------------|----------------|---------
E-----|----------------|---------------|3---------------|3--------

G7       D7         G7
U Zenicu kada podjem ja

G7       C7            G7  /G /A /H
Prati me pet-sest drotova

C                   Em       C       \
Okruzni sudija reko dvanaest godina   \
                                       > x2
         G7     D7           G7       /
Dvanaest godina strogog zatvora      /

Tuzna je moja sudbina
Zenu mi kreco Hakija
Kreco Hakija presudila mu cakija
Ne razumijes ti to druze sudija

Zenico mrzim svaki kamen tvoj
Zbog tebe ja mrzim zivot svoj
Ko prezivi dvanaest godina u K.P. domu Zenica
Taj je pravi hadzija

(prelaz D#7 x8 pa svi akordi za pola tona vise)

Raduje me jedna istina
Iz K.P. doma vratit cu se ja
Ali Hakija nikad nece sa Bara
Sa Bara se niko ne vraca

e|4-----------------3/4---
H|--7-4-------------6/7---
G|------7-6-4-------4/5---
D|------------6-4-6-5/6---
A|------------------------
E|------------------------
Komentari

Elvis Presley kaže:

moze mi neko pomoc ok solaze nerazumijem ju procitat, ni jednu pa ako ima kandidata sa zivcima neka se jave

23-07-2008 23:18

Dr.House kaže:

a sta neznas

30-11-2008 12:53

pink panther kaže:

mani je bolje kada sviram čisti G i D ljepše zvuči
možda je ovo točnije ali ovako je puno bolje za slušati

02-02-2009 16:18

ivkrizli kaže:

sve sviras zicu po zicu do kada vidis brojeve paralelno poredane onda ih sve sviras skupa odnosno to su ti akordi,kontas?=

09-06-2009 22:09

Mustafa Curic kaže:

Ovo nije iz orginalne intonacije.

15-06-2009 23:46

balaclava kaže:

legendo pobrko si.....

1) okruzni sudija reko 12 godina ne ide kako si ti napiso,tu se C dur i E mol trebaju zamjenit...

2) nije logicno da kraj stiha zavrsava sa visocijom notom tj akordom u ovom slucaju....

pa jesi li ti uopce probo odsvirat tako ?????

uvod :

--------------3-3-3-5-5-3-2-3-3
-------------------------------
-----------0-0-----------------
-------------------------------
------------------------------2
------------------------------3

ovako odmah ostajes na 3 polju ( e ) žice i hvatas G dur

mozda grijesim....

18-06-2009 15:11

balaclava kaže:

ovo je dole 2 i 3 trebalo bit malo desno,tj.zajedno se svira sa zadnjom 3 na e zici ( G dur)

18-06-2009 15:12

pro_pocetnik kaže:

meni je bolje ovako:

e|------------------------
H|------------------------
G|------------------------
D|------2--2-2-4-4-2-1-2--
A|--2-2-------------------
E|------------------------

20-10-2009 17:46

NeVl kaže:

a kako ide ritam?

05-11-2009 11:48

mr.brownstone kaže:

poslušaj pjesmu i sam uhvati ritam

08-11-2009 15:22

dajan kaže:

pa de daj ritam bar priblizno zajebano je

17-12-2009 12:55

Tonko666 kaže:

Pa kaj neide iz E????

05-06-2010 22:22

addmir_ kaže:

kako idu akordi d7 e7????

06-06-2010 09:59

abdujasmin kaže:

@addmir_
D7 E7 mada E7 mozes svirati i ovako
e|---5---7---| |---0---|
b|---7---9---| |---0---|
G|---5---7---| |---1---|
D|---7---9---| |---0---|
A|---5---5---| |---2---|
E|---5---5---| |---0---|

.. A za ovaj dio "okruzni sudija" cini mi se da su akordi C G i Em.. sta vi mislite o tome?

08-08-2010 16:49

Space kaže:

e-----|----------------|----2-------------------------------------------------
H-----|----------------|----3-------------------------------------------------
G-----|----------------|----2-------------------------------------------------
D-----|5---5-5-7-7-5-4-|5---0---------------2-2-0-2-2-0-2p0-----2-2-0-2-------
A-5-5-|----------------|---------------------------------2--------------------
E-----|----------------|------------------------------------------------------

zar nije vako bolje

24-09-2010 18:02

sxguitar kaže:

G D G
U Zenicu kada podjem ja

G C G /G /A /H
Prati me pet-sest drotova

C G /F#/ Em
Okruzni sudija reko dvanaest godina

G D G
Dvanaest godina strogog zatvora

Tuzna je moja sudbina
Zenu mi kreco Hakija
Kreco Hakija presudila mu cakija
Ne razumijes ti to druze sudija

Zenico mrzim svaki kamen tvoj
Zbog tebe ja mrzim zivot svoj
Ko prezivi dvanaest godina u K.P. domu Zenica
Taj je pravi hadzija


Raduje me jedna istina
Iz K.P. doma vratit cu se ja
Ali Hakija nikad nece sa Bara
Sa Bara se niko ne vraca


mislim da ovak ide )

13-02-2011 00:08

lpekas kaže:

ma sve vam je isto samo za pola tona više svirate samo u drugom položaju svaki akord za jedno polje unaprijed...

11-05-2011 14:21

WorldBestSoloMan kaže:

Ma vi šta neznate ritam uhvatit uz pjesmu pa ostavite se gitare :S Pa ja kad sam kreno svirat to ruka sama svira :$

23-05-2013 19:39

neuroteek kaže:

Ovo je jako poticajno od jednog covjeka koji kao zna svirat gitaru. Sram te bilo da tako ljude obeshrabris svojim komentarom.
Kladim se da sve krivo sviraš egotriperu. Ako nemas namjeru pomoci ljudima za koji djavo si se registrirao na sajt i sta uopce trazis u ovoj sekciji kad znas svirat?

18-06-2013 22:52