Webshop Music Centar

Đorđe Balašević

Balkanski Tango

by:

Pronađi akord!

Ne znaš kako odsvirati neki od akorda pjesmi Balkanski Tango? Upiši akord u tražilicu i saznaj!

Traženi akord će se prikazati ovdje

Od istog izvođača

Pregledano 11617 puta
Pregledano 24540 puta
Pregledano 7327 puta
Pregledano 10720 puta
Pregledano 4247 puta
Trebaš ritam za ovu pjesmu? Pronađi ga ovdje
Akordi/Tabovi:
Intro Solo:

  |e|----3563--------------------3563--------------------3-------------------------
  |H|--3-----3-3~3-----32------3-----3-3~3--------43----3-6644p3h4----64433p2h3----
  |G|---------3---5---2--3------------3---5-----25-----4------------25-------------
  |D|----------------4-------------------------4------5------------3---------------
  |A|---------------5-----------------------545------------------------------------
  |E|------------------------------------------------------------------------------

 
  |e|---3586536/-------------------------------------------------------------------
  |H|--3--------4-----3------43----------------------------------------------------
  |G|------------------253-----253-------------------------------------------------
  |D|---------------------5-------5------------------------------------------------
  |A|--------------545-------------------------------------------------------------
  |E|------------------------------------------------------------------------------
 

                Gm                                                       Cm
  Ovaj zivot je san, mala kuca kraj rampe, snop Zuckaste lampe i zalihe tuge,
             D                                                               Gm
  Na zalost, ruzan san: cale notorni smuk, keva s daskom za luk, manekeni za jad.   
                                                                    Cm
  Sve je morao sam, prst na orozu lagan, u srcu uragan i skok preko duge.
        D                                                Gm    G7
  Brod, sleper, i sa 22-e vec je imao sve, nju je video tad...

  Cm                                                           Gm
  Lud sam za tobom pace, ali lud sam i onako, trazim te otkako za sebe znam,
                       F                                 Bb             G7
  Budi moj ortak mace, nije mi lako da svu tu silnu lovu razbucam sam.
  Cm                                                           Gm
  Nesto sam nacuo da sutra mozda ne postoji, pa bolje da odmah probamo sve.
           D                               Gm     G7
  Za sitan gros kupi me, razmazi te divlje kupine.
                    Cm                                        Gm
  Lud sam za tobom, ali ovo jeste vreme ludih, i ja cu za nas osedlati strah,
          D                            Gm
  A ti me ljubi do zla, dok ne izgubim dah.


  A ona, seoski krin, nocni bus iz Provanse, miss nikakve sanse, tek statista srece,
  Presecen film, cale prosvetni mis, keva izlizan plis, sestra ruzna ko vrag.
  On je bio njen tip. Prve noci u dvosed, pa druge na trosed, a trece, eh, trece...
  Ma nek puknu svi, kad je njen mladi Don spusti pravo na tron, kao visnju na slag.


  Lud sam za tobom pace, ali lud sam i onako, trazim te otkako za sebe znam,
  Budi moj ortak mace, nije mi lako da svu tu silnu lovu razbucam sam.
  Nesto sam nacuo da sutra mozda ne postoji, pa bolje da odmah probamo sve.
  Za sitan gros kupi me, razmazi te divlje kupine.
  Lud sam za tobom, ali ovo jeste vreme ludih, i ja cu za nas osedlati strah,
  A ti me ljubi do zla, dok ne izgubim dah.

 
  Opet los 'deja vu', jutro mokro ko ribar i profi kalibar, pocinilac neznan,
  U citulji pune stranice dve; mafija i DB slozno zale za njim.
  Balkanski tango uvek zavrsi na trotoaru, djavo je kredom upisao bod,
  A ona lagano niz ulicu staru, trazeci sponzora punog ko brod.
  Dok klatno tasnice u ritmu hoda broji vreme i dok je merkaju ko svezi but,
  U beli prah smrvi dan i mrmlja refren odnekud znan:


  Lud sam za tobom, ali ovo jeste vreme ludih, i ja cu za nas osedlati strah,
  A ti me ljubi do zla, dok ne izgubim dah.
Komentari

thepetko kaže:

Pogresio si ne dosta mesta u solazi.

e-3-|----3h5-6-5-3------------|---------------|--3h5-6-5-3-----------|
h-3-|-3--------------3--3s4---|---------4-3---|3-------------3-3s4---|
g-3-|--------------3---------5|-------2-----3-|------------3--------5|
d-5-|-------------------------|-3s4-5---------|----------------------|
a-5-|-------------------------|---------------|----------------------|
e-3-|-------------------------|---------------|----------------------|

-----------------
------------4-2s3
----2-2-3-5------
4-5--------------
-----------------
-----------------

e---------3-------------|---------1--------------|---3h5-6s8-6-5-3-6/----|
h-------3---6-6h4-4h3h4-|-------1---4-4h3-3h1h3--|-3-----------------3-3-|
g-3s4-5-----------------|-1s2-3------------------|-----------------------|
d-----------------------|------------------------|-----------------------|
a-----------------------|------------------------|-----------------------|
e-----------------------|------------------------|-----------------------|

e-------------------|-------------|
h-------3-----------|-4-3---------|
g-----2-----2-5-3---|-----2-5-3---|
d-4-5-------------5-|-----------5-|
a-------------------|-------------|
e-------------------|-------------|

Ovo mi lepse zvuci, sta mislis?
Pozz

21-11-2011 14:57

thepetko kaže:

Akordi/Tabovi:
e-3-|----3h5-6-5-3------------|---------------|--3h5-6-5-3-----------|
h-3-|-3--------------3--3s4---|---------4-3---|3-------------3-3s4---|
g-3-|--------------3---------5|-------2-----3-|------------3--------5|
d-5-|-------------------------|-3s4-5---------|----------------------|
a-5-|-------------------------|---------------|----------------------|
e-3-|-------------------------|---------------|----------------------|

    -----------------
    ------------4-2s3
    ----2-2-3-5------
    4-5--------------
    -----------------
    -----------------

e---------3-------------|---------1--------------|---3h5-6s8-6-5-3-6-----|
h-------3---6-6h4-4h3h4-|-------1---4-4h3-3h1h3--|-3-----------------3-3-|
g-3s4-5-----------------|-1s2-3------------------|-----------------------|
d-----------------------|------------------------|-----------------------|
a-----------------------|------------------------|-----------------------|
e-----------------------|------------------------|-----------------------|

e-------------------|-------------|
h-------3-----------|-4-3---------|
g-----2-----2-5-3---|-----2-5-3---|
d-4-5-------------5-|-----------5-|
a-------------------|-------------|
e-------------------|-------------|

21-11-2011 15:01