Webshop Music Centar

Riblja Čorba

Kad Hodaš

by:

Pronađi akord!

Ne znaš kako odsvirati neki od akorda pjesmi Kad Hodaš? Upiši akord u tražilicu i saznaj!

Traženi akord će se prikazati ovdje

Od istog izvođača

Pregledano 18103 puta
Pregledano 5134 puta
Pregledano 5428 puta
Pregledano 2251 puta
Pregledano 33674 puta
Trebaš ritam za ovu pjesmu? Pronađi ga ovdje
Akordi/Tabovi:
D   F#m A    Hm
vece ne mirise na rakove i skoljke
mesec je bleda fleka boje cimeta
uzimas cipele za setanje kroz snove
ulica voli ritam tvojih koraka

vetar se provlaci kroz nepoznate reci
asfalt se miluje sa tvojim stiklama
suvise mekan da bi mogao da spreci
ovo je vece puno tvojih tragova

A     E
kad hodas ne zastajkujes
i zemlji ne dodirujes
A     E          D
a mene ne primecujes
  D
i uporno se trudis

da me prodje pozuda
jos drhtim od tvog pogleda
iz nekih starih razloga
ne mogu da se sredim

solo
   A           E          A E A      E D
e:-------12-12-12-10-9---------12-12-12-10-9---------12-12-12-10-12-14--15---|
h:-10------------------12-10-----------------12-10---------------------------|

   D
e:-14/15-12/14-10/12-9/10-|
h:------------------------|

   A           E          A E A      E D    D
e:-------12-12-12-10-9---------12-12-12-10-9---------12-12-12-10-12-14--15---|
h:-10------------------12-10-----------------12-10---------------------------|
Komentari

kecap kaže:

Ovaj 15 prag se ne uklpa bash ali je ostalo sve ok

23-07-2009 19:09

BOKYMAN kaže:

¸predobra pjesma

12-01-2010 22:15

Emol kaže:

ajte molim vas ritam za ovu pesmu?

26-03-2010 16:11

chepa kaže:

ovako ja sviram solo:
e:---------10s12-12-10-9--------------10s12-12-10-9-----------10s12-12-10-9----------9s10b---|
h:-12s10v-------------------12-10v--------------------12-10v-------------------12------------|
drugi deo isto samo na startu bez slajda na 10-i prag H zice vec se svira 10-i odmah, a zavrsnicu drugog dela sviram:
e:---10s12-12-12-14-16-17v---|
i onda onaj tanani zavrsetak:
e:---17-16-14-------------|
h:-------------14-16-17---|

04-01-2012 16:06

chepa kaže:

za pocetnike, samo da se neko ko ne zna ne zbuni, svi ovi pragovi "h" zice treba da stoje izmedju pragova "e"zice, ispod slobodnog prostora, kao na startu. malo se "h" zica pomerila levo kada sam postavio, ili sta vec.

04-01-2012 16:17