Zastave

  • autor:
  • datum: 01-05-2007 08:28

Pronađi akord!

Ne znaš kako odsvirati neki od akorda pjesmi Zastave? Upiši akord u tražilicu i saznaj!

Traženi akord će se prikazati ovdje

Od istog izvođača

Pregledano 1074 puta
Pregledano 22050 puta
Pregledano 34849 puta
Pregledano 5255 puta
Pregledano 7535 puta
Akordi/Tabovi:
Tuning : E A D G B E Time Signature: 4/4
                                   Am              C
|       |       |       |        |       |       |       |       
|--------------------------------|--------------------------------|
|------------------------10p8----|--------10p8---------------5h6p5|
|----------------------------9p7-|9~----------9p7-9~------5-7-----|
|--------------------------------|--------------------------------|
|--------------------------------|--------------------------------|
|--------------------------------|--------------------------------|
  G               F                Am              C
|       |       |       |        |       |       |       |       
|--------------------------------|--------------------------------|
|----------------------5---------|--------10p8---------------5h6p5|
|7~--------------7p5h7---7p5-----|------------9p7-9~------5-7-----|
|----------------------------7-5-|7~------------------------------|
|--------------------------------|--------------------------------|
|--------------------------------|--------------------------------|
  G
|       |       |       |        |       |       |       |       
|--------------------------------|--------------------------------|
|--------------------8-----------|--------------------------------|
|7~--------------7/9-----7p5-----|--------------------------------|
|----------------------------7---|--------------------------------|
|--------------------------------|--------------------------------|
|--------------------------------|--------------------------------|


Am         C
Nogom pred nogu - tiho!
G     F
Ja po vodi hodam
Am     C           G
Svojim putem uspravno

Pljuga na pljugu
Jedna na drugu
Slazem - sate, dane, godine

Dm       Am
Pa krenu bitke
      G
Dodju porazi
Dm       Am
Kad nije film
   F           G
Da pravda pobjedi
Sjeti se

Kako smo mastat znali
I bogu dane krali
Ispred "Zvecke" satima

Kovali planove
Kuzili istine
Svak' sa svojeg oblaka

Pa krenu bitke
Dodju porazi
Ti znas da nije lako
Isti ostati

     C    G    F         G
Moje zastave - uvijek su iste boje
C         G          F
Nad njima ljubav caruje
Moje zastave - nikad na pola koplja
Ljubav se ne predaje

Nogom pred nogu - tiho!
Ja na zici plesem
Zatvorenih ociju

Pljuga na pljugu
Jedna na drugu
Slazem - sate, dane, godine

Sad neki novi klinci dolaze
A sve se teze prave rijeci nalaze

Moje zastave...
Komentari

Juka vk kaže:

jel zna ko rifove koji se sviraju sa vrijeme pjevanja (između sloaža)

24-06-2008 19:02

Dr.House kaže:

ja znammmmm

29-11-2008 11:08

Jakow kaže:

stavi ak znaš

01-01-2009 15:03

D_dur kaže:

ew kad on nece hocu ja...:thumbsup

ewo ga:

E-----0----------0---0-0-----3--------------------------
B-----1---1------1---1-1--0--0--------------------------
G-----2---0------0---0-0--0--0-----2-----4--------------
D-----2---2----2-----2-2--0------3---3s5----------------
A--0------0ho3------------2-----------------------------
E-------------------------3-----------------------------


Kao uvod...Prostije receno

04-01-2009 13:49

Žare kaže:

super pjesma
samo što mi solo bolje zvuči full bending na 8 polje na drugoj žici umjesto 10 pull of na 8

05-05-2009 20:15

DIsturbed kaže:

jos kad bi neko stavio onaj zavrsni solo.....

25-05-2009 19:23

DIsturbed kaže:

Solista sam u bendu ,sviramo to al nigdje nemogu da nadjem taj zavrsni,a pretesko da ga skinem po

sluhu....

25-05-2009 19:25

juraj97 kaže:

superrrrrrrrrrrrrrrrrrrrrrrrr1:clover:clover

19-06-2009 21:46

slash123 kaže:

nije ga tesko skinut

08-11-2009 10:24

Pevec kaže:

ak si ga skinuo postaj ga xD

13-11-2009 14:14

haris kaže:

Akordi/Tabovi:
1. gitara(clean) kroz cijelu solo dionicu ponavlja ovo
(isto kao i uvod):
E-----0----------0---0-0-----3--------------------------
B-----1---1------1---1-1--0--0--------------------------
G-----2---0------0---0-0--0--0-----2-----4--------------
D-----2---2----2-----2-2--0------3---3s5----------------
A--0------0ho3------------2-----------------------------
E-------------------------3-----------------------------

14-11-2009 09:30

haris kaže:

Akordi/Tabovi:
2. gitara(distorzija):
E------------------------5--3---------------------------
B------------------------------br3--------3-------------
G------------5--b7------------------5po2----------------
D---5ho7------------------------------------------------
A-------------------------------------------------------
E-------------------------------------------------------

E-------------------------------------------------------
B-------------------------------------------------------
G---br4po2---2----------2-------------------------------
D----------5----2---5-------------2-------5ho7----------
A---------------------------br3-------b5--------5-------
E-------------------------------------------------------

E--3ho5po3-----b7--5-----------------------------8po5---
B--3ho5po3-------------8--------------------5ho8--------
G---------------------------br7po5--b7------------------
D-------------------------------------------------------
A-------------------------------------------------------
E-------------------------------------------------------

E--7---5------5-----------------------------------------
B---------8------8po5------------------------13---------
G---------------------br7po5ho7s9-----12ho14----14------
D-------------------------------------------------------
A-------------------------------------------------------
E-------------------------------------------------------

E--------15-15------------------------------------------
B---hb15hbhbhbhbhb-ru-po13ho15--------------------------
G-------------------------------br14po12----------------
D-------------------------------------------------------
A-------------------------------------------------------
E-------------------------------------------------------

14-11-2009 09:30

haris kaže:

Akordi/Tabovi:
2. gitara(distorzija):
E--12po8----12po8----12po8----12po8----12po8------------
B--------10-------10-------10-------10-------10---------
G-------------------------------------------------------
D-------------------------------------------------------
A-------------------------------------------------------
E-------------------------------------------------------

E--10po7---10po7---10po7--8po5---8po5----8po5----------
B--------8-------8-------------6------6----------------
G-------------------------------------------------------
D-------------------------------------------------------
A-------------------------------------------------------
E-------------------------------------------------------

3. gitara(distorzija):
E--8po5---8po5---8po5---8po5---8po5---------------------
B-------5------5------5------5------5-------------------
G-------------------------------------------------------
D-------------------------------------------------------
A-------------------------------------------------------
E-------------------------------------------------------

E--7po3---7po3----7po3--5po1---5po1---5po1--------------
B-------3------3-------------1------1-------------------
G-------------------------------------------------------
D-------------------------------------------------------
A-------------------------------------------------------
E-------------------------------------------------------

Nekoliko puta ovo se ponavlja, a zatim se polako
smanjuje volume do kraja

14-11-2009 09:30

Pevec kaže:

jesi siguran da su ovi dobri?

15-11-2009 19:38

Sikimic kaže:

jel moze neko da ritam pojasni? plz

24-03-2010 22:19

dika23 kaže:

a lupa ritam DGDD ak ti nista bolje ne padne napametmalo sam pripazis i to ti je to....
e a jel onaj skroz gore kao solo jel to ubiti ono sto električna svira kroz skoro cijelu pijesmu...

30-03-2010 00:30

Sikimic kaže:

e meni nekako bolje zvuci ovako

F C
Pa krenu bitke a ovo ostalo je ok po meni...
G
Dodju porazi
F C
Kad nije film
G
Da pravda pobjedi
Sjeti se

05-06-2010 10:48

Sikimic kaže:

F C
Pa krenu bitke
G
Dodju porazi
F C
Kad nije film
G
Da pravda pobjedi
Sjeti se

valjda ce biti dobro :P

05-06-2010 10:51

solo_xx kaže:

ej ljudi moze ko staviti prelaze pls

06-06-2010 21:55

haris kaže:

Prelaze sam skidao po sluhu, jer nisam našao tabove.. Svaki put drugačije sviram...

07-06-2010 07:11

mali rocker kaže:

sve ovisi o tonalitetu

24-09-2010 16:15

gaivata kaže:

jel ima neko mozda od akia rahimovskog ti i ja akorde ili tblaturu molivas treba mi a nemogu naći na netu
hvala

27-09-2011 20:32

Mister X kaže:

Najvise mi odg iz Em,G,Am,C,Em itd

13-11-2012 21:46