Kada padne noc

  • autor: Armstrong
  • datum: 26-05-2007 20:29

Pronađi akord!

Ne znaš kako odsvirati neki od akorda pjesmi Kada padne noc? Upiši akord u tražilicu i saznaj!

Traženi akord će se prikazati ovdje

Od istog izvođača

Pregledano 1735 puta
Pregledano 505 puta
Pregledano 3438 puta
Pregledano 1491 puta
Pregledano 2055 puta
Akordi/Tabovi:
intro: Am7
uvod: Am G Dm Am

Am
Ja zivim na slepom koloseku
Prosli su svi moji vozovi
F
Cit'o sam danasnje novine
Am
Nisu izvuceni moji lozovi

Am/H Am  Am7      Am6 Am
Su---nce izlazi i zalazi
Am/H Am Am7   Am6 Am
Sve  je kao i obicno
F/G F      F7      F6   F
    Kada o tebi ne razmisljam
Am/H    Am Am7    Am6  Am   Am/H Am A5 H5 C5 C#5
Stvarno se osecam odlicno

ref:
Dm           C
A kada padne noc
   Gm      F
Ja zovem u pomoc
    C         B
Jer tebe nema tu
Dm         C
Svaki novi dan
   Gm          F
Ko smrt je dosadan
    C         B
Jer tebe nema tu

< uvod>

Nisam dripac ni probisvet
I ni zbog ceg nije me stid
Imam svoj mali svet
I oko njega kineski zid

Sunce izlazi i zalazi
Sve je kao i obicno
Kada o tebi ne razmisljam
Stvarno se osecam odlicno

< ref>
< solo: Dm Am Gm C Dm 2x>
< ref>
< kraj = uvod>

!! Am/H  577557 !!
!! Am7   57758x !!
!! Am6   57757x !!
!! F/G   133213 !!
!! F7    13324x !!
!! F6    13323x !!

                 ^  ^
/--------------( *  * )--------------\
|====================================|
|        < DjAkOn   StRaSnI >        |
|     CrambambulyPunch@yahoo.com     |
|    CrambambulyPunch@popstar.com    |
\------------------------------------/


***VERZIJA 2***

Transkripcija: Vanja Cerimagic (fur_immer_punk@hotmail.com)
Poslala      : Djavolica (vanja_s@one.net.au)
Home         : http://2akordi.net


e-----------------------------------------------------5---5--------
h---------------------------------------------------------------5--
g----------5--------------5----------------5-7----5-7-------7-5----
d------5-7---7--------5-7---7-5--------5-7-------------------------
a----7--------------7----------------7-----------------------------
e--5--------------5----------------5-------------------------------

a
ja zivim na slepom koloseku

prosli su svi moji vozovi
F
cito sam danasnje novine
a
nisu izvuceni moji lozovi

sunce izlazi i zalazi
sve je kao i obicno
kada o tebi ne razmisljam
stvarno se osecam odlicno

d C
a kada padne noc
g F
ja zovem u pomoc
C B d
jer tebe nema tu uuuu
C
svaki novi dan
g F
ko smrt je dosadan
C B d
jer tebe nema tu uuuu

e-----------------------------------------------------5---5--------
h---------------------------------------------------------------5--
g----------5--------------5----------------5-7----5-7-------7-5----
d------5-7---7--------5-7---7-5--------5-7-------------------------
a----7--------------7----------------7-----------------------------
e--5--------------5----------------5-------------------------------

nisam dripac ni probisvet
i ni zbog ceg nije me stid
imam svoj mali svet
i oko njega kineski zid

sunce izlazi i zalazi
sve je kao i obicno
kada o tebi ne razmisljam
stvarno se osecam odlicno

a kada padne noc
ja zovem u pomoc
jer tebe nema tu
svaki novi dan
ko smrt je dosadan
jer tebe nema tu

a kada padne noc
ja zovem u pomoc
jer tebe nema tu
svaki novi dan
ko smrt je dosadan
jer tebe nema tu

e-----------------------------------------------------5---5--------
h---------------------------------------------------------------5--
g----------5--------------5----------------5-7----5-7-------7-5----
d------5-7---7--------5-7---7-5--------5-7-------------------------
a----7--------------7----------------7-----------------------------
e--5--------------5----------------5-------------------------------

e---------------------------------
h---------------------------------
g----------5--------------5-------
d------5-7---7--------5-7---7-5---
a----7--------------7-------------
e--5--------------5---------------

e-------------------5---5--------7-5-----------------
h-----------------------------5------5---------------
g--------5-7----5-7-------7-5----------7-5-----------
d----5-7-----------------------------------7-5-------
a--7-------------------------------------------7-5---
e-5--------------------------------------------------5
Komentari

alen_takamineG kaže:

odlicno svaka cast

19-01-2009 00:00

pop pž kaže:

neide B neg A#

15-07-2009 18:56

Dark Stratocaster Angel kaže:

ovo mi je najbolja pjesma od čorbe a i jedna od najdražih najbolja je

07-08-2009 01:24

Skid row-18 kaže:

dobra je

07-12-2009 03:23

bojanx kaže:

a sta ti je drugo B

14-01-2010 17:31

jur@ kaže:

hahahaha dobar, dobar neide B nego A# hahaha

21-09-2010 16:01

phoenixbl kaže:

Nemojte se bezveze smijati covjeku, to je cesta zabuna jer recimo amerikanci akord A# ne zovu B i ako pogledate neke strane sajtove za akorde vidjecete da je kod njih akord B u stvari isto sto je kod nas H, a ne A# odnosno Bb.

30-11-2010 23:11

KocA kaže:

aha istina ali po komentaru mora da nauci pragove F,Fis,G,Gis,A,BiliBis,H,C,Cis,D,Dis,E
E-------------- najtanja [ova]
H--------------
G--------------
D--------------
A--------------
E najdeblja [i ova] su iste e znaci kad udaris najdeblju zicu to je ton E pa stisnes prvo prag
to je F pa drugi Fis i ve tako kao sto sam napisao gore,kad lupis zicu ispod najdelje bass zide to je A i kad stisnes na prvi prag to je B,H..... malo razmisli o ovo me sto sam napisao nauci i postani muzicar ovo je nophodno da sviras gitaru bez ovoga nista !!! :>

18-12-2010 21:00

ecofield kaže:

jel može da ide ritam dole dole gore gore dole gore, ili tako nešto slično, ispravite me ako grešim, početnik sam, tj slušam ali ne mogu baš da provalim.

11-04-2011 14:23

Saska"98Rock kaže:

Super akrdi

06-11-2011 00:12