Webshop Music Centar

Riblja Čorba

Celu noc te sanjam

by: Armstrong

Pronađi akord!

Ne znaš kako odsvirati neki od akorda pjesmi Celu noc te sanjam? Upiši akord u tražilicu i saznaj!

Traženi akord će se prikazati ovdje

Od istog izvođača

Pregledano 4888 puta
Pregledano 2194 puta
Pregledano 1024 puta
Pregledano 39671 puta
Pregledano 1238 puta
Trebaš ritam za ovu pjesmu? Pronađi ga ovdje
Akordi/Tabovi:
Uvodni solo:
   A    E         Fism
E----------------------------------------|
H--2--3s5--7s9-9s10--10^12^10-9-9s10-7s9-|
G----------------------------------------|
D----------------------------------------|
A----------------------------------------|
E----------------------------------------|
     D       E              A        E               
                                    {--------------Alternate-------------}     
E-------------------------------------------------------10-9-7---------7-|
H--9^10-9^10-9-9^10^9-7-5s3-3-2-0-2--------------7-9-10--------10-9-10---|
G------------------------------------------6-7-9-------------------------|
D------------------------------------6-7-9-------------------------------|
A------------------------------------------------------------------------|
E------------------------------------------------------------------------|
  A    E           Fism
                   {--------------Alternate------------------
E-9-10s12-10^12^10-9-10-7-10----10---10---10---10----10-----|
H----------------------------10----9----7-------------------|
G--------------------------------------------9-----7----7-6-|
D-----------------------------------------------------------|
A-----------------------------------------------------------|
E-----------------------------------------------------------|
  D    E       A 
---}             
E------------------------|
H---s7-5-3-2-0-----------|
G-7------------2-2~~~~~--|
D------------------------|
A------------------------|
E------------------------|


Pratnja (Nema potrebe da za ovo pisem tablature, jer izuzev arpeggia u refrenu
pratnja je laganica - obicno razlaganje akorda)

Am       E    G           Am
Ako neko hoce skroz da me zajebe
C       G    Am
Onda me samo upita za tebe
     Am   E G       Am
I ja pocnem da se prenemazem
      C     G           Am
I da lazem, besomucno lazem
I kazem:

Dm              Am
Nikada te nisam mario
Dm                  Am
Da sam te vise puta prevario
Dm                         Am
Pa zar zbog jedne takve da ginem?
E
I lazem, lazem kako zinem...

Ref:
A       E                Fism
Onda se sklanjam u svoju sobu
D            E     A    E
I lepo mi je kao u grobu
A       E               Fism
Onda se sklanjam u sobu svoju
         D               E       A    E
I pravim se da su mi sve ovce na broju
A         E          Fism
Onda se u svoju sobu sklanjam
       D        E
I celu noc,celu noc
   A
Te sanjam...

Refren - arpeggia:
  A              E                Fism
{-----------------------Sweep picking-------------------------------}
E------------------------------------------2----------------2---------
H---------2----------------------------------2---2------------2---2---
G-------2--2---2---------1---------------------2----------------2-----
D-----2------2---------2---2---2--------4----------------4------------
A-0-4----------------2-------2--------4----------------4--------------
E----------------0-4--------------2-5--------------2-5----------------

  D               E                A                E
{-----------------------------Sweep picking-------------------------}
E--------2-----------------------------------------------------------|
H------3---3---3---------------------------2-------------------------|
G----2-------2------------1--------------2--2---2-----------1--------|
D-0-4-------------------2---2---2------2------2-----------2---2---2--|
A---------------------2-------2----0-4------------------2-------2----|
E-----------------0-4-------------------------------0-4--------------|

(ova sema se svira 2 puta. Treci put se odsviraju arpeggia samo za A, E i Fism
(kao na prvoj tablaturi), a zavrsi se sa rifovima:

  D E A
E--------------|                  (ako ste pocetnik ili ne zelite da se zamarate
H--------------|                   ovim, odsvirajte refren razlaganjem, ili
G-2------------|                   punim akordima, ako vam lepse zvuci)     
D-0------------|
A---2-7-7------|
E---0-5-5------|     

Objasnjenje:
*Alternate picking je fora da okidate zicu  trzalicom cas odozgo, cas odozdo
(za jedan ton okidate odozgo, a za sledeci odozdo). Tako se dobije na brzini
pri sviranju skale, a i zvuci lepse.
*Sweep picking je fora za sviranje arpeggia. Ako se krecete po zicama odozgo nadole
zice trzate odozgo, a ako se krecete odozdo nagore, trzate odozdo. Takodje sluzi za
dobijanje na brzini.

Jos jedna vrlo bitna stvar: kad svirate arpeggio, svaku zicu prigusite posle okidanja,
inace ce vas arpeggio zvucati kao razlaganje akorda.Mozda je malo komplikovano, ali
uz upornu vezbu, sve se moze postici.
Komentari
Još nema komentara