Samo za taj osjecaj

  • autor:
  • datum: 26-05-2007 03:25

Pronađi akord!

Ne znaš kako odsvirati neki od akorda pjesmi Samo za taj osjecaj? Upiši akord u tražilicu i saznaj!

Traženi akord će se prikazati ovdje

Od istog izvođača

Pregledano 2395 puta
Pregledano 7044 puta
Pregledano 11495 puta
Pregledano 7953 puta
Pregledano 2442 puta
Akordi/Tabovi:
Uvod:
    A5                           D5
E||----------------------|-----------------5----|-------5----||
B||------------5---------|--5---------3---------|--3---------||
G||--------2---------2---|----------------------|------------||
D||----------------------|-------0--------------|------------||
A||--0-------------------|----------------------|------------||
E||----------------------|----------------------|------------||

     A5
E||--x---
B||--5---
G||--2---
D||--2---
A||--0---
E||------  A u tekstu

A,     D
da sam prazan list
potpuno cist
koristio bih puno, puno deblji kist
i samo jarke i sarene boje
da napisem ime tvoje i moje

da sam prazna glava
potpuno zdrava
ne bih vise nista ucio zabadava
samo onolko kolko mi treba
da jos ostanem paf od tolikog neba.

A D A Fm# E
A

A, D
Da se mogu ko nekad
Vratiti na pocetak
I biti onaj isti bahati djecak
Ne bih forsiro neki lezeran stil
Niti se trudio da uklopim

Ref: A, D
     (A   D  D  D  D)

E||--x---2--5--4--2----|-------|-------||
B||--5---3--3--3--3----|-------|-------||
G||--2---2--2--2--2----|-------|-------||
D||--2---0--0--0--0----|-------|-------||
A||--0-----------------|-------|-------||
E||--------------------|-------|-------||

Samo za taj osjecaj, samo za taj osjecaj

A D A Fm# E
A

A, D
da sam prazan list
potpuno cist
koristio bih puno, puno deblji kist
i samo jarke i sarene boje
da napisem ime tvoje i moje

da se mogu ko nekad
dratiti na pocetak
I biti onaj isti bahati djecak
ne bih forsiro neki lezeran stil
niti se trudio da uklopim

D, A
moj svijet u ovaj svijet
moje snove u raspored
i riskirao bih svaki pokusaj
da zadrzim taj osjecaj
Komentari

Dr.House kaže:

nema potrebe svirat kad dobro zvuci i samo A-dur, koji je ovako najjednostavniji
A5 A
E||--x--- E||--0---
B||--5--- B||--2---
G||--2--- G||--2---
D||--2--- D||--2---
A||--0--- A||--0---
E||------ E||------

25-11-2008 13:58

Dr.House kaže:

jbg loše je ispalo

25-11-2008 13:59

kušo kaže:

e kako to ide jer se svaki put mjenja A pa D ili prvo A pa onda samo D??

26-11-2008 20:30

spu kaže:

Samo ovde ide opet:

D F#m
moj svijet u ovaj svijet
D
moje snove u raspored
A
i riskirao bih svaki pokusaj
D
da zadrzim taj osjecaj

24-11-2009 01:26