Parni Valjak

ODLAZIM

by: KarabajaX

Pronađi akord!

Ne znaš kako odsvirati neki od akorda pjesmi ODLAZIM? Upiši akord u tražilicu i saznaj!

Traženi akord će se prikazati ovdje

Od istog izvođača

Pregledano 906 puta
Pregledano 50493 puta
Pregledano 16505 puta
Pregledano 24446 puta
Pregledano 6504 puta
Trebaš ritam za ovu pjesmu? Pronađi ga ovdje
Odlazim
Parni Valjak

Cm7 F Gm
---------------------
---------6-5-4-------
----5-7--------7-----
--7------------------
---------------------
---------------------

F Gm
Ponekad sam poput pjesme
Cm7 F Gm
Bezbroj puta pjevane
Cm7 F Gm
Kada riječi prazne zvone
Bb F Gm
Umorne i pijane

Cm7

F Gm Bb
Puštao sam neka prođe
Cm7 F Gm
Neka vrijeme izbriše
F Gm
Al' u meni mira više nema
Bb F Gm
Sve te laži peku previše

Bb
Cm Gm Cm Gm Cm Gm
Odlazim, odlazim, odlazim, odlazim
Bb F Gm
Samo želim da zaboravim
Cm Gm Cm Gm Cm Gm
Odlazim, odlazim, odlazim, odlazim
Bb F Gm
Više nemam što da izgubim

Cm7 F Gm

Cm7 F Gm Bb
Još se sjećam prvog plesa
Cm7 Gm
"Roboti"su svirali
Cm F Gm
A mi smo tad' toliko toga
Bb F Gm
Još pred sobom imali

F

Cm Gm Cm Gm
Odlazim, odlazim, odlazim
Bb F G
Samo želim da zaboravim
Cm Gm Cm Gm
Odlazim, odlazim, odlazim
Gm F Gm
Više nemam što da izgubim

-------------------------------------------------------
-------------------------------------------------------
--7-6-4---4-6-4---------7-6-4---4-6-4------------------
--------7-------7-4-----------7-------7-4--------------
-------------------------------------------------------
-------------------------------------------------------

-------------------------------------------------------
-------------------------------------------------------
--6h7\6-4-7-6-4-6-4-6-------------4b-4---4-6-4---------
----------------------7-4-4---4-7------7-------7-4-----
-------------------------------------------------------
-------------------------------------------------------
Komentari
Još nema komentara