S.A.R.S.

Rakija + Intro

by: weka18

Pronađi akord!

Ne znaš kako odsvirati neki od akorda pjesmi Rakija + Intro? Upiši akord u tražilicu i saznaj!

Traženi akord će se prikazati ovdje

Od istog izvođača

Pregledano 13582 puta
Pregledano 1320 puta
Pregledano 10089 puta
Pregledano 698 puta
Pregledano 307 puta
Trebaš ritam za ovu pjesmu? Pronađi ga ovdje
Akordi/Tabovi:
S.A.R.S – Rakija

Intro:

E -----------------------------------------------7-7-7-7-7-8-7-----------------------------------------
H ---7-8---10-12-10-12-10---8-7-------7-8-7-8-------------------10-8-7---------------------------------
G -9----------------------------9-8-----------9------------------------8-------------------------------
D -----------------------------------------------------------------------------------------------------
A -----------------------------------------------------------------------------------------------------
E -----------------------------------------------------------------------------------------------------

E ------------------------------------------------7-7-7-7-7--8-10-8-7----7-----------------------------
H ---7-8---10-12-10-12-10---8-7-------7-8-7-8-------------------------10---10-8-7----------------
G -9----------------------------9-8------------9------------------------------------------8-9------------
D -----------------------------------------------------------------------------------9-11--------------
A -----------------------------------------------------------------------------------------------------
E -----------------------------------------------------------------------------------------------------

Em       Am H          Em    Am H
Mrtav pijan i na ljude ljut
Krenuo sam ja na ovaj put
Otis'o sam daleko od kuce
Ali tamo nema radze vruce

Ref.
Em        Am     H      Em    Am H
Na zapadu sva su burad prazna
Bez rakije najgora je kazna
Volim, volim, volim, volim da je pijem
Nadjite je, sve cu, sve cu da vas bijem

Dzaba svetu sva njegova blaga
Kad on ne zna gde je meni draga
Vina slatka i pomalo pitka
Nigde nema takvoga napitka

Ref.....

Rakija me odrzala, zato njoj ti hvala
Uvek mi je nove snage dala
Uvek nove snage dala
Nemam brata, ni sestre, ni druga
Nikog nemam ja
Rakija je moja i sreca i tuga
Komentari
Još nema komentara