Pobjego sam (verzija 4)

  • autor: Ivan Milisic
  • datum: 14-06-2011 23:50

Pronađi akord!

Ne znaš kako odsvirati neki od akorda pjesmi Pobjego sam (verzija 4)? Upiši akord u tražilicu i saznaj!

Traženi akord će se prikazati ovdje

Od istog izvođača

Pregledano 6083 puta
Pregledano 18128 puta
Pregledano 3813 puta
Pregledano 7290 puta
Pregledano 3515 puta
Akordi/Tabovi:
----------------------------------------------
Opca Opasnost - "Pobjego sam" by Ivan Milisic
----------------------------------------------

Intro: C# G# a# F#
       C# G# a# F#
       
e|--------------------------------------------------------------|
B|--/7-6-/9----9b11r9--6----------------------------------------|
G|------------------------8---6----6-8-6-8-8b10r8-6-------/6----|
D|--------------------------6-----------------------8-6-4-------|
A|--------------------------------------------------------------|
E|--------------------------------------------------------------|


Strofa:
        C#               G#
Sve ono važno ti nisam stigao reci
a#               G#
Tražio sam kraci put ka sreci
F#         G#            C#
I negdje usput izgubio tebe
C#                         G#
A ne znam gdje sam išao i šta sam to htio
a#                    G#
Bježao sam valjda od samoga sebe
F#         G#            C#
I negdje usput izgubio tebe


Predrefren:
       a#
Da ti kažem oprosti
         F#
To tako jadno zvuci sad
      a#
Kao i ona prica
         G#
Kako sam bio klinac
         F#       G#       
Kako sam bio premlad


Refren:

Istina je...
C#            G#          a#
Pobjego sam priznajem ti sada,
                 F#
Ti si me cekala tamo

Na našem mjestu ,
C#             G#             a#
Pobjego sam od nas od ovoga grada,
                F#
Bilo je ljetno vece,

Posljednim vlakom,
C#            G#         a#
Pobjego sam kao zadnje smece
                   F#
Jer sam se bojao ljubavi
                   C#
Jer sam se bojao srece


Samo srušene snove što me još bude nocu
Ljubav bez ljubavi laž i samocu
To sam našao tražeci sebe
Izmedu dva pijanstva mi je postalo jasno
Da se nemogu vratiti i da je prekasno
I da sam zauvijek izgubio tebe

Predrefren:
Refren:

Solo: C# G# a# F#


e|---------------------------------------------------------------------------|
B|--/7-6--------------------------6------------------------------------------|
G|-------8-6-8-8b10-6-8---8b10r8--8b10--8b10r8-6-8b10------6----6b8r6--------|
D|-----------------------------------------------------6-8---8--------3/4----|
A|---------------------------------------------------------------------------|
E|---------------------------------------------------------------------------|

Predrefren:
Refren:

----------------------------------------------
Opca Opasnost - "Pobjego sam" by Ivan Milisic
----------------------------------------------
Komentari

LoLa kaže:

Ivane daj poslušaj brate bolje nema smisla
samo u strofi imaš 6 (šest)akordskih grešaka.
Javi se PP jer da počnemo razglabat ja bi opet izvuka deblji kraj.
Naravno ako te zanima ako ne sviraj i ti i ostali ovako kako si napisa.
Dobro tebi i njima a meni pogotovo jer ja sigurno neću ovako svirati.

15-06-2011 16:47

XSARA kaže:

Lola imaš pravo, 6 krivih akorda u prvoj strofi(ako ne računamo one koji su malo na krivom mjestu),može ovako nekako??
Akordi/Tabovi:
        C#             Fm
Sve ono važno ti nisam stigao reci
F#               C#
Tražio sam kraci put ka sreci
F#              G#     C#
I negdje usput izgubio tebe
C#                        Fm
A ne znam gdje sam išao i šta sam to htio
F#                   Bbm
Bježao sam valjda od samoga sebe
F#        G#           C#
I negdje usput izgubio tebe

15-06-2011 21:35

LoLa kaže:

Nemože!!!!!

16-06-2011 11:55

LoLa kaže:

Akordi/Tabovi:
Može samo ovako!!!!(To je samo refren a pisma ima i drugi dio)

C#                    F
Sve ono važnoti nisam stigao reći
F#               A#m
tražio sam kraći put ka sreći
F#       G#            C#
i negdje usput izgubio tebe
C#                        F
a ne znam gdje sam išao i šta sam to htio
F#                   A#m
bježao sam valjda od samoga sebe
F#       G#            C#
i negdje usput izgubio tebe

16-06-2011 12:56

XSARA kaže:

LoLa, točno,potpuno ispravno.
Sjedi,5

16-06-2011 17:38

ivanbullet kaže:

Upravu si to je ta strofa!
Tek sad vidim da je toliko krivo
Thnx na ispravci

16-06-2011 23:19

vuka21 kaže:

daj lola stavi ti novu tocnu verziju

29-06-2011 13:52

mateolasic14 kaže:

Trebao bi neko ko zna i ima vremena napisat prave akorde a ostali koji su netocne dodavali nek izbrisu il nek to admin ucini.I bilo lijepo da se i napise tab za uvodni solo i kroz pjesmu sta solo gitara svira ;) bio bi jako zahvalan kad bi to neko napravio

27-07-2011 21:58

Sebastijan 88 kaže:

Oprostite ljudi,ali pokusavao sam odsvirati prema ovim tabovima sto ih je LoLa stavio u komentar.. Nikako mi ne pase taj prvi F na pocetku. Kada sviram i pustim si pjesmu, ne zvuci niti slicno..

26-09-2011 16:41