Ne Želiš Kraj

  • autor:
  • datum: 22-04-2007 17:44

Pronađi akord!

Ne znaš kako odsvirati neki od akorda pjesmi Ne Želiš Kraj? Upiši akord u tražilicu i saznaj!

Traženi akord će se prikazati ovdje

Od istog izvođača

Pregledano 1697 puta
Pregledano 6075 puta
Pregledano 6016 puta
Pregledano 3517 puta
Pregledano 7206 puta
G(sus4) D
Ne zelis kraj, mada je tu
Am Em D G(sus4)
Medju nama stvara se jaz i blijedi sjaj
g(sus4) D
Ne zelis kraj, tesko je znam
Am Em D G(sus4)
Ali idi, ne daj se, ne daj, ostacu sam


C D G D C
Bili smo luckast par
C D G D C
Mada vec prosla stvar
C D G D Em
Sada jos molim te
Am D G C G
Odbacimo gluposti sve
Komentari

deiks kaže:

lose arrane de to malo bolje....(:

04-08-2009 01:48

Tyn-Amater kaže:

treba posložit to malo ljepše !

14-10-2009 17:17

Tyn-Amater kaže:

Akordi/Tabovi:
  G(sus4)          D
Ne želiš kraj, mada je tu
Am                 Em       D     G(sus4)
Medju nama stvara se jaz i blijedi sjaj
G(sus4)             D
Ne zelis kraj, tesko je znam
Am                  Em       D     G(sus4)
Ali idi, ne daj se, ne daj, ostacu sam


C     D    G           D      C
Bili smo luckast par,  mm-mm-mm
C     D   G              D      C
Mada vec prosla stvar,   mm-mm-mm
C     D   G      D     Em
Sada jos molim tee-ee-ee
Am     D  G       C G
Odbacimo gluposti sve

14-10-2009 17:32

cupostv kaže:

moze li neko postaviti uvod (tabove)....
molim vaaaas.

09-02-2010 15:14

dr djeka kaže:

ja sam pocetnik i interesuje me kako da ide ritam desnom rukom? jel ima neka fora za to ili, posto mi je i kod ostalih pesama tesko da skinem?

19-02-2010 21:07

haris kaže:

Lijepo pustiš pjesmu i sviraš uz nju.. Nema boljeg načina!

20-02-2010 10:48

cicostos kaže:

Jel ima netko tablaturu za intro?

17-03-2010 11:15

cicostos kaže:

našao:

Intro:
E|-3---3--------------------------------2----------------------------|
H|-3-------------------------------------3---------------------------|
G|-0-------------------------------------2---------------------------|
D|-0--------------------0-h-2-p-0---------------------0h2p0----------|
A|-2---------------2---------------------------0-2-3---------------2-|
E|-3-----------3-----------------------------------------------------|

E|----------------------------------2--------------------------------|
H|-----------------------------------3-------------------------------|
G|-----------------------------------2-------------------------------|
D|---------------0h2p0--------------------0h2p0----------------------|
A|-------------2----------------------0-2-3---------------2----------|
E|-------3---3----------------------------------------------------3--|

17-03-2010 11:35

addmir_ kaže:

ej kako se svira Gsus4???

22-04-2010 13:10

addmir_ kaže:

de bha koji je ritam ovu pjesmu volima nezz ritam pa bih vas zamolio da napisete

pooz

22-04-2010 13:31

addmir_ kaže:

de bha koji je ritam ovu pjesmu volima nezz ritam pa bih vas zamolio da napisete

pooz

22-04-2010 13:31

eagle kaže:

Jer zna možda neko solažu, što je svira negdje u sredini
pozdrav.

18-08-2011 14:16

svabo07 kaže:

ritam ti je ugrubo-DGDGDG, nadam se da sam pomogo...

12-09-2011 23:46

tdtnc kaže:

Gsus4 (akord)

e|------3-----
B|-1----------
G|------------
D|------------
A|---2--------
E|------3-----

e|------3-----
B|-1----------
G|------------
D|------------
A|------------
E|------3-----

Gsus4
320013
EADGBe
300013
EADGBe

Eto pa kako vam je lakše!



Akordi/Tabovi:
         G  Gsus4 G
   Ne zelis kraj
           D
   mada je tu
        Am              Em  D        G  C G
   medju nama stvara se jaz i bljedi sjaj


Ne zelis kraj
tesko je znam  ou jeea
    Am           Em     D       G   bas prijelaz G-A-H
al' idi nedaj se ne daj ostacu sam


REFREN:
C      D           G   Gsus4  G + bas prijelaz G-A-H
  Bili smo luckast par
C      D          G    Gsus4  G + bas prijelaz G-A-H
  mada vec prosla stvar
C      D         G  D Em
  sada jos molim te
Em  Am  Am7  D         G  C G
  odbacimo    gluposti sve


G-A-H prijelaz

A------0---2----
E--3------------

07-05-2012 13:25