Deset mladja

  • autor:
  • datum: 06-01-2011 23:13

Pronađi akord!

Ne znaš kako odsvirati neki od akorda pjesmi Deset mladja? Upiši akord u tražilicu i saznaj!

Traženi akord će se prikazati ovdje

Od istog izvođača

Pregledano 28599 puta
Pregledano 4027 puta
Pregledano 13536 puta
Pregledano 15034 puta
Pregledano 23919 puta
Akordi/Tabovi:
Dino Merlin - Deset Mladja

Intro

Evo ja ovako sviram uvod, ne zvuci tolko lose barem meni.

E--------|--------------|---------------|-----------|
H--------|--------------|---------------|-----------|
G---4----|-4-5-4-2-4----|--4-5-4-2-2----|--2-4-5-7--|
D--------|--------------|---------------|-----------|
A--------|------------2-|-------------3-|-----------|
E---0--0-|---------0--0-|----------0--0-|-----------|
   let ring~~~~~~~~~~~~~~~~~~~~~~~~~~~~~
E--------|--------------|----------------|----------|
H--------|--------------|----------------|----------|
G--4-----|-4-5-2--4-----|--4-5-4-2-2-----|-2-4-5-7--|
D--------|--------------|----------------|----------|
A-----2--|-----------2--|-------------3--|----------|
E--0--0--|--------0--0--|----------0--0--|----------|
   let ring~~~~~~~~~~~~~~~~~~~~~~~~~~~~~


Em                                   Am
Vidi ovu zvijezdu, vidi ove ostvarene zelje
Em                               H7
ovo kino snova zovu fantazijom
Em             H7 H      Em
sad kad proslo je ono najgore
Am        C              H7
zasto mi sad priredjujes to

Am               C      G             F
Tvoje godine traze, nesto lazno i umirujuce
Am             C         G          F
bijeg od vode i struje i sigurnosti znam po sebi
Dm          Am    C          G
Mnoge kao da zure zeljne avanture
Dm          Am     E           E7
da si deset mladja a da si opet ti

ref:
        Am      (!) C              Dm (#)
ostavi me danas,     ostavi me jucer
Am            C            G ($)
ostavi me moja vilo bilo kad
         Am    (!) C                 Dm (%)
ostavi me sutra    ili nekog novog jutra
Am       C           G   ($)
samo me ne ostavljaj sad
                         E                  Am
Na vrhu uvijek ima mjesta ako se krene sa dna

Jer ja imam samo tebe i ne znam koliko ta ljubav vrijedi
nikog prije imao nisam da te usporedim
stavi kremu za bore mozda ti se osmijeh vrati
sa mnom si deset mladja samo sa mnom si opet ti



Solo
Akordi koji idu su isti ko i za refren.

E----------------------|--------------------|-------------------|--------|
H---5---5-6-8-6--5-3-3-|---3-5-6-5--3-1-1---|--1-3-6-3--1-0-0---|--3--5--|
G----------------------|--------------------|-------------------|--------| 2X
D----------------------|--------------------|-------------------|--------|
A----------------------|--------------------|-------------------|--------|
E----------------------|--------------------|-------------------|--------|

Prelazi:
(ovo mozete uljepsati sa h, p ili / ali osnova je ovo)

(!)
E--------------|
H--5-5-5-6-8-5-|
G--------------|  !
D--------------|
A--------------|
E--------------|
  (#)
E--------------------|
H--5-5-3-5/6--5-3----|
G------------------5-|
D--------------------|
A--------------------|
E--------------------|
  ($)
E-------------|
H--3-3--------|
G------5-4--4-|
D-------------|
A-------------|
E-------------|
  (%)
E----------------------|
H--5-5-6-8-8/10--8-6-5-|
G----------------------|
D----------------------|
A----------------------|
E----------------------|
Komentari
Još nema komentara