Webshop Music Centar

Klapa Sveti Florijan

Osta sam čovik

by:

Pronađi akord!

Ne znaš kako odsvirati neki od akorda pjesmi Osta sam čovik? Upiši akord u tražilicu i saznaj!

Traženi akord će se prikazati ovdje

Od istog izvođača

Pregledano 24348 puta
Pregledano 4749 puta
Pregledano 34551 puta
Pregledano 1478 puta
Pregledano 15550 puta
Trebaš ritam za ovu pjesmu? Pronađi ga ovdje
Akordi/Tabovi:
G     D
Nikada te nisam taka
e C
a uvik sam za tobom plaka
G     D       e
zabranjena uvik bila si

Boli me svaki pogled
a riže me svaki osmjeh
šta slučajno  meni poklonila si


I nestala je prašina sa srca mog
di su samo grubi tragovi
di su tragovi

G     D
A nikada te nisam taka
e C
umira bi svaki puta
G          D     G      D
zabranjena uvik bila si

G   D
Oosta sam čovik
e C
ali srca više nema
G   D
osta sam živit
e C
ali živit mi se neda
G    D
osta sam stajat
e    C
ali slomit će me vrime
a D    G    D
a ljubav ne prolazi

I nestala je prašina sa srca mog
di su samo grubi tragovi
di su tragovi

A nikada te nisam taka
umira bi svaki puta
zabranjena uvik bila si
Komentari

arango kaže:

OSTA SAN ČOVIK

Gis Dis
Nikada te nisan taka
fis Cis
A uvik san za tobon plaka
Gis Dis fis Cis
Zabranjena uvik bila si

Boli me svaki pogled
A riže me svaki osmijeh
Što slučajno meni poklonila si

I nestala je prašina sa srca moga
Di si samo grubi tragovi
A nikada te nisan taka
Umira bi svaki puta
Gis Dis Gis
Zabranjena uvik bila si

Gis Dis
Osta san čovik
fis Cis
Ali srca više nema
Gis Dis fis Cis
Osta san živit ali živit mi se ne da
Gis Dis
Osta san stajat
fis Cis
Ali slomit će me vrime
Ais dis Gis Dis Gis
A ljubav ne prolazi *2

I nestala je prašine sa srca moga
Di si samo grubi tragovi
A nikada te nisan taka
Umira bi svaki puta
Zabranjena uvik bila si

Osta san čovik
Ali srca više nema
Osta san živit ali živit mi se ne da
Osta san stajat
Ali slomit će me vrime
A ljubav ne prolazi *2

A ljubav ne prolazi…

20-01-2011 14:45

G1T4R15T kaže:

kao što arango kaže samo meni umjesto fis-a bolje zvuči Fm
ne znam kako vama...

28-06-2011 17:12

G1T4R15T kaže:

i ovo : "Ais dis Gis Dis Gis
A ljubav ne prolazi *2"

ide: ais Dis Gis Dis

28-06-2011 17:16

crosaiyan kaže:

bio bih zahvalan kad bi netko stavio solo

10-09-2011 18:04

blacky_on kaže:

E-------------------------7 s 8---11-11---13---11-------------------8---7-s-8-9----------
B---9-8-9-11---9-11----------------------------------9-s-11-9-11----------------¬---------
G-------------------------------------------------------------------------------¬-------------------
D-------------------------------------------------------------------------------¬-------------------
A-------------------------------------------------------------------------------¬-------------------
E-------------------------------------------------------------------------------¬-------------------


E-11-r-9------------------------------------------------------------------------¬----------------
B----------11---9-8-9---11-r-9--------------------------------------------------¬-------------
G------------------------------------10---10-8----------------------------------¬---------------
D----------------------------------------------------10-s-8--6-8--10-10---------¬-----------
A-------------------------------------------------------------------------------¬-------------------
E-------------------------------------------------------------------------------¬-------------------


E--7-s-8-8-9-11---13-13-11---------11---------------------------9-9-9--8--------¬-----
B-----------------------------------14-13----14-13-11---13--------------------11¬--9-----9
G------------------------------------------------------------------13-----------¬-------------12-
D-------------------------------------------------------------------------------¬-------------------
A-------------------------------------------------------------------------------¬--------------------
E-------------------------------------------------------------------------------¬-------------------

19-10-2011 10:17

crosaiyan kaže:

Hvala puno...

29-10-2011 19:16

trk kaže:

Za one koji sviraju po gornjim akordima,a tako je puuuno jednostavnije, kapodaster ide na prvo polje. (nije navedeno, nije da se pravim pametan, samo hoćem pomoći početnicima, kao što je meni pomoglo...)

28-11-2011 11:57

LoLa kaže:

Akordi

28-11-2011 12:07

ja_slash kaže:

ritam???

30-06-2012 10:53

mile202 kaže:

ja_slash@ skuzi sam

30-06-2012 20:25