Webshop Music Centar

Željko Bebek

Oprosti mi što te volim

by: Željko Bebek

Pronađi akord!

Ne znaš kako odsvirati neki od akorda pjesmi Oprosti mi što te volim? Upiši akord u tražilicu i saznaj!

Traženi akord će se prikazati ovdje

Od istog izvođača

Pregledano 1649 puta
Pregledano 2219 puta
Pregledano 6599 puta
Pregledano 14705 puta
Pregledano 2003 puta
Trebaš ritam za ovu pjesmu? Pronađi ga ovdje
Akordi/Tabovi:
[b]Oprosti mi što te volim-Željko Bebek
[/b]
E|-5-5-5-5-5/6-6-6\3-1-|-5-5-5-5-6-5------------|
B|-6-6-6-6-6/8-8-8\5-3-|-5-5-5-5-8-6-8-6-5-1-/3-|
G|---------------------|-------------9-7-5-0-/2-|
D|---------------------|------------------------|
A|---------------------|------------------------|
E|---------------------|------------------------|

E|-5-5-5-5-5/6-6-6\3-1-|------5---/9----12-13-12-10-|
B|-6-6-6-6-6/8-8-8\5-3-|-/5----------10-10-------10-|
G|---------------------|--------6----------------10-|
D|---------------------|----7-----------------------|
A|---------------------|----------------------------|
E|---------------------|----------------------------|

Dm         Gm         A           Dm
Šta se ovo majko moja sa mnom dogodi
           Gm         C           F
Slomilo se sve u meni grom me pogodi
Bb         Gm         C          F   C
Kao da sam lutka koja bol ne osjeća
Dm        Gm          A           Dm    (C)
Ostavi me ljubav moja usred proljeća

Preko polja za mnom idu dvije muzike
Jedna uvijek tugu svira da me ubije
Druga samo jednu pjesmu pjesmu ljubavi
Pjesmu koju neæu moći ja preboljeti

REFREN:
F          C            F           C
Oprosti mi što te volim Bog me kaznio
F         C           F        C   A
Dao mi je da te vidim pa te uzeo
Bb       Gm        C         F  A
A u mome srcu samo teku otrovi
Dm         Gm        A          Dm
U njima me nema više u njima si ti


Pustio sam jednu suzu mušku najtežu
Pustio i sa njom dušu dušu ranjenu
Kao da sam lutka koja bol ne osjeæa
Ostavi me ljubav moja usred proljeæa
Komentari

Guitardude1o1 kaže:

Ovo ti nista ne valja...ovako bi to trebalo da zvuci!

Am E7 E Am
Šta se ovo majko moja sa mnom dogodi
E7 G C
Slomilo se sve u meni grom me pogodi
F G C E7
Kao da sam lutka koja bol ne osjeća
Am E7 E Am
Ostavi me ljubav moja usred proljeća



REFREN:
C G C G
Oprosti mi što te volim Bog me kaznio
C G C G
Dao mi je da te vidim pa te uzeo
F G C E7
A u mome srcu samo teku otrovi
Am E7 E Am
U njima me nema više u njima si ti

17-12-2010 19:36

simek kaže:

Po meni ovo je originalan verzija,odlično je to sročeno bravo!!!

30-01-2011 09:50

simek kaže:

Naravno mislim na verziju iz D mola

30-01-2011 09:52

vokicmile kaže:

Guitardude,original verzija ti je iz Dmol-a...tako da je ovo odlicno uradjeno...

05-03-2011 11:27