Webshop Music Centar

Darko Radovanović

Ako je do mene

by: Zdravko

Pronađi akord!

Ne znaš kako odsvirati neki od akorda pjesmi Ako je do mene? Upiši akord u tražilicu i saznaj!

Traženi akord će se prikazati ovdje

Od istog izvođača

Pregledano 16261 puta
Trebaš ritam za ovu pjesmu? Pronađi ga ovdje
Akordi/Tabovi:
Darko Radovanovic i Ivana Selakov - Ako je do mene

Akordi : by Zdravko
 
Intro:HmDEmGA

  Hm            D           Em           G    A               Hm

e---------------------------------------------------------------
h------------7--7-8-10-8-7----------------7------------7-8-10-7-
g--6-7-6-------------------9-9--9-7-9-7-9--7-----6-7-9----------
d--------9-9----------------------------------------------------
a---------------------------------------------------------------
E---------------------------------------------------------------
 
  Hm            D           Em            G   A               Hm

e---------------------------------------------------------------
h------------7--7-8-10-8-7----------------7---------------------
g--6-7-6-------------------9-9--9-7-9-7-9--7----6-7-6-7-6-------
d--------9-9-----------------------------------------------9-9--
a---------------------------------------------------------------
E---------------------------------------------------------------



Strofa:

Hm             A            Hm
Kako mi nocas fale tvoje mane...
Hm             A                Hm
kad mi upadas u rec,upadas u stan,
Hm                 A            Hm
na sto mi bacis prasnjave sandale...
           G         F#m         Hm
pa onaj smeh,kao lek,sto iscupa dan....

Hm             A           Hm 
To sneg mirise kao da ce dugo...
Hm              A            Hm
gde tope pahulje tvoja stopala...
Hm                A            Hm             
ma,sve po starom,ne umem ti drugo...
G                                F#m
ja sam se valjda, sreci,,manje dopala...

REF:
Hm            D                Em
Ako je do mene sto mi se ne vracas,
             G       A
sto mi se ne javljas
               Hm
lako cu,ako je do mene...
                  D                Em
reci,pa da stavim novo srce manji broj,
                G      A
novu kozu bolji kroj...
                Hm
lako cu,al nije do mene...

                  D                Em
Reci,pa da stavim novo srce manji broj,
                G      A
novu kozu bolji kroj...
                Hm
lako cu,al nije do mene...

Hm             A           Hm 
To sneg mirise kao da ce dugo...
Hm              A            Hm
gde tope pahulje tvoja stopala...
Hm                A            Hm             
ma,sve po starom,ne umem ti drugo...
G                                F#m
ja sam se valjda, sreci,,manje dopala...


REF:

Hm            D                Em
Ako je do mene sto mi se ne vracas,
             G       A
sto mi se ne javljas
                Hm
lako cu,ako je do mene...
                  D                Em
reci,pa da stavim novo srce manji broj,
                G      A
novu kozu bolji kroj...
                 Hm
lako cu,al nije do mene...

                  D                Em
Reci,pa da stavim novo srce manji broj,
                G      A
novu kozu bolji kroj...
                Hm
lako cu,al nije do mene...


Solo je improvizacija u datim akordima...
Komentari

stefan93 kaže:

Darko Radovanovic R.I.P... pocivaj u miru

12-06-2011 01:45