Želim biti ti

  • autor: xsara
  • datum: 22-04-2010 12:41

Pronađi akord!

Ne znaš kako odsvirati neki od akorda pjesmi Želim biti ti? Upiši akord u tražilicu i saznaj!

Traženi akord će se prikazati ovdje

Od istog izvođača

Pregledano 972 puta
Pregledano 7495 puta
Pregledano 3597 puta
Pregledano 3630 puta
Pregledano 3739 puta
Akordi/Tabovi:
Vatra
Želim biti ti
(Album:Anđeo s greškom,2002.)

Tuning:Std(eBGDAE)

Intro
   G       Gmaj7     Asus4   c                 Dsus2
e|---3-----2-------------------3-----3---------------0-|
B|-----3-----3---5-3-------3-----5-----5---5-3-----3---|
G|-------4-----4---------2---------5-----5-------2-----|
D|---------------------2-----------------------0-------|
A|-------------------0-------3-------------------------|
E|-3---------------------------------------------------|

   G       Gmaj7     Asus4   c                 D
e|---3-----2-------------------3-----3-----------2-2-2-2-|
B|-----3-----3---5-3-------3-----5-----5---5-3---2-2-2-2-|
G|-------4-----4---------2---------5-----5-------2-2-2-2-|
D|---------------------2-----------------------0---------|
A|-------------------0-------3---------------------------|
E|-3-----------------------------------------------------|

C         D/Dsus2/D
Zavedi me noćas
C         D/Dsus2/D
Udahni me tiho da ne probudiš
C         D/Dsus2/D
Usnulo nebo
C         D/Dsus2/D     G
I hladno more koje odnosi

G               Am7              C
Tvoj posljednji glas progutat će noć
               D/Dsus2/D        G               
Tvoj miris bez riječi more odnosi
G               Am7              C
Tvoj posljednji glas progutat će noć
               D/Dsus2/D
Pa hajde još jednom

C         D/Dsus2/D
Povedi me sad
C         D/Dsus2/D
U svoje tijelo
           C 
Želim biti ti
C         D/Dsus2/D
Bez imalo straha
C          D/Dsus2/D         G
Zamolit ću srce da te ne pusti

Tvoj posljednji glas progutat će noć
Tvoj miris bez riječi more odnosi
Tvoj posljednji glas progutat će noć
A samo još jednom želim biti ti     2x

Telefon/Hej, mađarski??/
Želim biti
Tvoj posljednji glas....
Komentari

XSARA kaže:

Da ne bude zabune:U uvodu "c" je "C", a "D" je D-dur

Akordi/Tabovi:
Intro
   G       Gmaj7     Asus4   C                 Dsus2
e|---3-----2-------------------3-----3---------------0-|
B|-----3-----3---5-3-------3-----5-----5---5-3-----3---|
G|-------4-----4---------2---------5-----5-------2-----|
D|---------------------2-----------------------0-------|
A|-------------------0-------3-------------------------|
E|-3---------------------------------------------------|

   G       Gmaj7     Asus4   C                 D
e|---3-----2-------------------3-----3-----------2-2-2-2-|
B|-----3-----3---5-3-------3-----5-----5---5-3---3-3-3-3-|
G|-------4-----4---------2---------5-----5-------2-2-2-2-|
D|---------------------2-----------------------0---------|
A|-------------------0-------3---------------------------|
E|-3-----------------------------------------------------|

24-04-2010 22:53