Webshop Music Centar

Crvena Jabuka

Volio Bih Da Si Tu

by:

Pronađi akord!

Ne znaš kako odsvirati neki od akorda pjesmi Volio Bih Da Si Tu? Upiši akord u tražilicu i saznaj!

Traženi akord će se prikazati ovdje

Od istog izvođača

Pregledano 65344 puta
Pregledano 7610 puta
Pregledano 5936 puta
Pregledano 62085 puta
Pregledano 4283 puta
Trebaš ritam za ovu pjesmu? Pronađi ga ovdje
Akordi/Tabovi:
Am                           G                      Am
Volio bih da si tu, ove noći kako trebaš mi.
Dm                Am                 E                  Am
Kao more mornaru, nemam s kim nadu dijeliti,
        E            Am
dijeliti, i sačuvati.

Volio bih da si tu, noćni program je na radiu
puštaju neku dragu muziku, moje misli tebi putuju,
putuju, da te pronađu.

      Dm     G         C      Am Dm  G        C     Am
ref: Noćas zvijezde padat će, jedna od njih naša je,
      Dm   G    C   Am        E                           Am
       jedna nosi utjehu, ko' u snu, volio bih da si tu.

Volio bih da si tu, ove noći da pričaš mi,
slavili bi do zore, svu bi nježnost svijeta popili,
popili, pa se ljubili.
Komentari

Alen Duspara kaže:

Fali akord koji u pocetnom dijelu

24-04-2008 17:59

romano_gitarist kaže:

ja mislim da je pjesma iz E mola

19-12-2008 01:32

D_dur kaže:

preobra pjesma..a za akorde moze iz E ljepse zvici

14-01-2009 23:35

Durak kaže:

Fali solaza u udodnom dijelu pjesme.Po mom misljenju pjesmu sviraju dvije gitare,jedna solazu, druga ovaj dio koji je dat ovdje.Takode solaze ima i u daljem toku pjesme.
Bilo bi fino da je stavljen TAB sa solazom i naznakom gitara br.2 i time bilo sve jasno.

22-02-2009 08:28

haris87 kaže:

pjesma iz orginala ide iz a mola,sta pricate.....

14-04-2009 17:32

bladerocker kaže:

poslusajte pjesmu malo bolje...i vidjecete da jeste Am...

15-05-2009 17:48

kiba kaže:

Am D G Em Am D G Em
E|--------------------------------------------------------------------------|
H|--------------------------------------------------------------------------|
G|------------------9--9-7------------------------------9-7-----------------|
D|--------9^10-9-10--------10-9--10-9---------9^10-9-10-----10--9-7-9--10-9-|
A|-7-9-10------------------------------7-9-10-------------------------------|
E|--------------------------------------------------------------------------|

D Em H7 Em
E------------------------------------------------------|
H------------------------------------------------------|
G--9-7-------------------------------------------------|
D------10-9-7--9-10-9-----------------------7----------|
A----------------------10-9-7--9-10-9--9^10---10-9-7---|
E------------------------------------------------------|


full sve

16-01-2010 02:10

kiba kaže:

samo pesma pocinje iz Em msm iz Em bolje zvci

16-01-2010 02:12

korisnicko ime kaže:

nije bitno.. od Am do Em ima:

G#m
Am
Bm 1
Hm 2
Cm 3
C#m 4
Dm 5
D#m 6
Em 7
Fm
F#m
Gm
G#m
Am

znaci sve +7..

jako je jednostavno krecete iz kojeg hocete akorda!!!

16-01-2010 13:59

Veljaaa kaže:

Naravno da krece iz Em...

30-07-2011 20:15

LoLa kaže:

Sad kad ste riješili da je iz Em
sad napišite akorde sa tekstom da i drugi mogu svirati.

31-07-2011 15:53

BhLudak kaže:

Ok evo akordi iz Em

Em D Em
Volio bih da si tu ove noci kako trebas mi
Am Em H Em
Kao more mornaru nemam skim nadu djeliti
H Em
Djeliti i sacuvati


Am D G Em Am D G Em
Nocas zvijezde padat ce , jedna od njih nasa je
Am D G Em H Em
jedna nosi utjehu , ko u snu , volio bih da si tu

23-02-2013 11:17