Da ima nas

  • autor: fallen_angel
  • datum: 07-02-2010 12:55

Pronađi akord!

Ne znaš kako odsvirati neki od akorda pjesmi Da ima nas? Upiši akord u tražilicu i saznaj!

Traženi akord će se prikazati ovdje

Od istog izvođača

Pregledano 1867 puta
Pregledano 16046 puta
Pregledano 7650 puta
Pregledano 3871 puta
Pregledano 6720 puta
Akordi/Tabovi:
                        Neverne Bebe
                         Da ima nas     

Uvod
                                 
E||------------------9----------------------------|
B||--9-10---12---12----12-------9---7---7----7/9--|
G||---------------------------9------------9------|
D||-----------------------------------------------|
A||-----------------------------------------------|
E||-----------------------------------------------|

                                       
E||------------------12---------------------------------|\
B||--9-10---12---12-----12-------------------------9----| \
G||---------------------------13-11----13--11--11----9--|  \ 2X
D||---------------------------------14------------------|  /
A||-----------------------------------------------------| /
E||-----------------------------------------------------|/


Strofa>
                     
A           E   
Korak iznad duge
B        C#m
tanka linija
oped svoje misli
govorim na glas.
Koliko cu puta
oterati strah
samo da si tu
i da ima nas!

Ref>

A          E
Pogledaj u sunce
B         C#m
iznad oblaka
to sto tamo vidis
to smo ti i ja.
Pogledaj u nebo
pogledaj u san
to se zove ljubav,
to smo ti i ja.


Solo

E||------------------------------------------------------------------|
B||--12-------14----12--------12-------------------------------------|
G||--11b13-------13----12--13----13h12-11h9----11----9---------------|
D||-----------------------------------------11----11---11--9-11-11~--|
A||------------------------------------------------------11----------|
E||------------------------------------------------------------------|

                                                                 
E||--------------------------------------------------|
B||--------------------------------------------------|
G||--9-----------------------------------------------|
D||-------11----9--11----9---------------------------|
A||----------11-------11---11-9-7---9---7----7-------|
E||-----------------------------------9----7---7-9~--|

                                               
E||-----------15--14----------------------------------------|
B||-------------------14h17h14----14-14-----------14--------|
G||11-11-13--------------------16--------16----------16-----|
D||-----------------------------------------17-18-------16--|
A||---------------------------------------------------------|
E||---------------------------------------------------------|

                                     
E||-----------------------------------------|
B||-----------------------------------------|
G||--12h11h9-11----9------------------------|
D||-------------11----11----9-11-9----11----|
A||----------------------11--------------11-|
E||-----------------------------------------|

                                       
E||----------------------------------------|
B||----------------------------------------|
G||----------------------------------------|
D||--9-----------------------9-11----9-11--|
A||----11-9----9------9-----------11-------|
E||---------12-----12---9-12---------------|

                                                                           
E||-12----------------------------------------------------------------------|
B||----14h12----------14h12-------------------------------------------------|
G||----------13h11----------13h11-------11h12h11----------11----------------|
D||----------------14-------------14-11----------14h11-------14h11----------|
A||----------------------------------------------------14----------14h11----|
E||----------------------------------------------------------------------14-|
Komentari

Marko_89 kaže:

Po mom misljenju sve je ok...Ali u refrenu ide H dur umesto B dura,jedino ako nije pisano po americkom sistemu...

29-12-2010 18:00

MiroslavAdice kaže:

Svuda treba H dur.

25-03-2011 19:50

MiroslavAdice kaže:

I u prvom delu uvoda se na E žici svira 10 prag a ne 9.

25-03-2011 19:54

Zdravkochris kaže:

Intro nije dobar,fali zavrsetak,tj.to je onaj deo koji se ponavlja medj strofama.

19-12-2011 15:46

Zdravkochris kaže:

Akordi/Tabovi:
E---------------12----------------------------
H-9--10--12-12------12-----------7-7-7-9-----
G-----------------------13-11-9-----------9---


Ovaj deo se dodaje na onaj prvi deo intra.

19-12-2011 15:55

GosnDjole kaže:

Ja mislim da ide samo D, A, E, F#m kroz celu pesmu

09-09-2012 20:39

lynx993 kaže:

Ako ti pjevac moze potegnut 5 polutonova visocije, slobodno
Original ide iz A, ovi akordi prvobitno navedeni su tacni

10-09-2012 03:17