Oliver Dragojević

Cesarica Tab

by: gitaristx

Pronađi akord!

Ne znaš kako odsvirati neki od akorda pjesmi Cesarica Tab? Upiši akord u tražilicu i saznaj!

Traženi akord će se prikazati ovdje

Od istog izvođača

Pregledano 6119 puta
Pregledano 20270 puta
Pregledano 16929 puta
Pregledano 21049 puta
Pregledano 30195 puta
Trebaš ritam za ovu pjesmu? Pronađi ga ovdje
[code]C F G C F G C itd...
e-------------------------------0-------------
H-----1-0-0---0-1-0-0-1-3-3-1-3---------------
G-0-0-------2-----------------------2-2-2-2-2-0-0-
D--------------------------------------------------3-2--
A----------------------------------------------------
E------------------------------------------------------

-||- -||- -||- -||- -||- -||- -||-
e-------------------------------0-1-1-1-0-0-------0---
H-----1-0-0---0-1-0-0-1-3-3-1-3-------------3-3-1-1---
G-0-0-------2-------------------------------------0---
D-----------------------------------------------------
A-----------------------------------------------------
E-----------------------------------------------------

e--------------------------------0------------
H-----1-0-0---0-1-0-0-1-3-3-1-3----------------
G-0-0-------2----------------------2-2-2-2-2-0-0---
D------------------------------------------------3-2-
A-----------------------------------------------
E---------------------------------------------------


e-------------------------------0-1-1-1-0-0-------0---
H-----1-0-0---0-1-0-0-1-3-3-1-3-------------3-3-1-1---
G-0-0-------2-------------------------------------0---
D-----------------------------------------------------
A-----------------------------------------------------
E-----------------------------------------------------

e-0-0-0-1-0------------------------------0-1-0-0-----
H-----------3-1-0-3-1-0-1----0-0-0-1-3-3-------1---
G-------------------------2--------------------0-
D-------------------------------------------------
A--------------------------------------------------
E-----------------------------------------------------


e--0-0-0-1-0------------------0-3-0-----0---------
H------------3-1-0-3-1-0-1----------3-1-1------------
G--------------------------2------------0---------------
D-----------------------------------------------------
A------------------------------------------------------
E----------------------------------------------------

:D
Komentari

gitaristx kaže:

Dobro san ja ovo obradio!
Sta kazete?

26-12-2009 15:12

mozartov_bubreg kaže:

super!!

27-12-2009 23:58

MrGalik7 kaže:

Može pitanje?

Evo početnik sam pa još skroz ne razumijem, ove nule tu iznad brojeva i to se svira ili?

19-07-2017 20:08