Kada padne noc'

  • autor: milan997
  • datum: 05-08-2009 11:22

Pronađi akord!

Ne znaš kako odsvirati neki od akorda pjesmi Kada padne noc'? Upiši akord u tražilicu i saznaj!

Traženi akord će se prikazati ovdje

Od istog izvođača

Pregledano 14792 puta
Pregledano 10376 puta
Pregledano 21511 puta
Pregledano 2802 puta
Pregledano 3058 puta
Akordi/Tabovi:
e|--------------------------------------------------------------
H|----------------------------------------------11-9------------
G|---------5-------------5--------------5-7-5--------10-8-10-10-
D|-----5-7---7-------5-7---7-5------5-7-------7-----------------
A|-5-7-----------5-7------------5-7-----------------------------
E|--------------------------------------------------------------



Ne zaboravite da ostavite komentar bez obzira da li vam se svidja ili ne.
Komentari

Djole_93 kaže:

08-08-2009 12:32

crew kaže:

slabo je to sam ga ja naučio bre pa me on kopira miljuš ubiću te
čmaru jedan

14-08-2009 12:18

crew kaže:

obaveznoo odgoovori miljuš

14-08-2009 12:19

djcoma90 kaže:

Ovdje nesto fali... Mozda da se malo ubaci tremola, ali i dalje nesto fali...

02-09-2009 22:15

vlobrk kaže:

skroz je netacno

03-09-2009 03:04

dajan kaže:

vlobrk jesi ti kad sluso muziku ako je ovo skroz netacno i ti si skroz netacan lol
nije bas najjace al prvi dio je dobbar samo ovaj kraj se moze izmjeniti

JOS TREBA ZNAT KAKO!!!

25-10-2010 18:36

dino_sxguitar kaže:

e|---------------------------------------------5-----------------------
H|------------------------------------------------7--5-------5---------------
G|---------5-------------5--------------5-7-------------5---------------
D|-----5-7---7-------5-7---7-5------5-7-------------------------------------
A|-5-7-----------5-7------------5-7--------------------------------------------
E|------------------------------------------------------------------------

ja to sviram ovako i super mi zvuci!

29-01-2011 18:25

dino_sxguitar kaže:

e|---------------------------------------------5-----------------------
H|------------------------------------------------7--5-------5---------------
G|---------5-------------5--------------5-7-------------5---------------
D|-----5-7---7-------5-7---7-5------5-7-------------------------------------
A|-5-7-----------5-7------------5-7--------------------------------------------
E|------------------------------------------------------------------------

ja to sviram ovako i super mi zvuci!

29-01-2011 18:31

dino_sxguitar kaže:

samo kopiraj te ovo u word,da bi vam se poredjalo kako treba!

29-01-2011 18:34