End Whit You

  • autor:
  • datum: 15-07-2009 12:27

Pronađi akord!

Ne znaš kako odsvirati neki od akorda pjesmi End Whit You? Upiši akord u tražilicu i saznaj!

Traženi akord će se prikazati ovdje

Od istog izvođača

Pregledano 642 puta
Pregledano 560 puta
Pregledano 618 puta
Pregledano 634 puta
Pregledano 667 puta
Akordi/Tabovi:
THis 's a easy song

e-----------------------------------------------------------
b-----------------------------------------------------------
g-6-6-6-6-6-6-6-6-6-6-6-6-6-6-6-----------------------------
d-x-x-x-x-x-x-x-x-x-x-x-x-x-x-x-----------------------------
a-4-4-4-4-4-4-4-4-4-4-4-4-4-4-4-----------------------------
e-----------------------------------------------------------
 

e-------------------------------|
b-------------------------------|
g-------------------------------|
d-------------------------------|
a-------4--4--------------------|
e-5--5--------2--2-4--4-2--2----|
 
s
e--------------------------
b--------------------------
g------6-6-----------------
d-7-7--6-6--4-4---6-6--4-4-
a-7-7--4-4--4-4---6-6--4-4
e-5-5-------2-2---4-4--2-2


then play this:
e---------------|-------------------------------------------
b---------------|-------------------------------------------
g------6-6------|-------------------------------------------
d-7-7--6-6--4-4-|-------------------------------------------
a-7-7--4-4--4-4-|-------4-4-4-------------------------4-4-4-
e-5-5-------2-2-|-5-5-5-------2-2-2-4-4-4-2-2-2-5-5-5-------
                 p.m........................................

e-------------------------------|
b-------------------------------|
g-------------------------------|
d-------------------------------|
a-------------------------------|
e-2-2-2-4-4-4-2-2-2-------------|
................................|



outro:
e-----------------------------------------------------------
b-----------------------------------------------------------
g-6-6-6-6-6-6-6-6-6-6-6-6-6-6-6-----------------------------
d-x-x-x-x-x-x-x-x-x-x-x-x-x-x-x-----------------------------
a-4-4-4-4-4-4-4-4-4-4-4-4-4-4-4-----------------------------
e-----------------------------------------------------------

OK          PUNK        ROCK !!!!!!!!!!!!!!!!!!!!!!!!!!!!!!!!1
Komentari
Još nema komentara