All Guns Blazing

  • autor: Steve
  • datum: 12-05-2009 23:45

Pronađi akord!

Ne znaš kako odsvirati neki od akorda pjesmi All Guns Blazing? Upiši akord u tražilicu i saznaj!

Traženi akord će se prikazati ovdje

Od istog izvođača

Pregledano 1189 puta
Pregledano 759 puta
Pregledano 1245 puta
Pregledano 1129 puta
Pregledano 1156 puta
Akordi/Tabovi:
.  - palm mute           /  - slide up to
\  - slide down to       ~  - vibrato
h  - hammer on           b  - Bend
p  - pull off            Suffixes for bend
t  - tap                 f  - full bend    h - half bend
ph - pinched harmonic    q  - quarter bend t - tap bend
*  - see comment         ^  - Hold bend    r release bend
x  - Stuccatto           ~  - vibrato bend
,  - slight palm mute    () - ghost note, sustained note
"  - tremolo note        <> - Trill

Tunning E A D G B E

Intro

Vocals      ~~~~~~~~~~~~
E-----------------------------------|
B-----------------------------------|
G------------5--------(5)-----------|
D------------5--------(5)-----------|
A------------3--------(3)-----------|
E-----------------------------------|

Main riff
    h  [---PM---]     [---PM---]  h [PM]     [PM]
E------------------------------------------------------------|
B------------------------------------------------------------|
G--------------------------------------------------5--4--2---|
D--------------------------------------------------5--4--2---|
A-4-4--4-4-4-4-4-5\4--4-4-4-4-4-4-4--4-4-5\4--4-4--3--2--0---|
E-0-2--2-2-2-2-2-3\2--2-2-2-2-2-0-2--2-2-3\2--2-2------------|
                                                  Rpt 2 X


Verse

    h  [---PM---]     [---PM---]  h [PM]     [PM]
E------------------------------------------------------------|
B------------------------------------------------------------|
G--------------------------------------------------5--4--2---|
D--------------------------------------------------5--4--2---|
A-4-4--4-4-4-4-4-5\4--4-4-4-4-4-4-4--4-4-5\4--4-4--3--2--0---|
E-0-2--2-2-2-2-2-3\2--2-2-2-2-2-0-2--2-2-3\2--2-2------------|

    h  [---PM---]     [---PM---]        [--PM--]
E------------------------------------------------------------|
B------------------------------------------------------------|
G--------------------------------------------------5---------|
D--------------------------------------------------5---------|
A-4-4--4-4-4-4-4-5\4--4-4-4-4-4-4-2--2---2---2-----3---------|
E-0-2--2-2-2-2-2-3\2--2-2-2-2-2-2-0--0---0---0---------------|

    h  [---PM---]     [---PM---]  h [PM]     [PM]
E------------------------------------------------------------|
B------------------------------------------------------------|
G--------------------------------------------------5--4--2---|
D--------------------------------------------------5--4--2---|
A-4-4--4-4-4-4-4-5\4--4-4-4-4-4-4-4--4-4-5\4--4-4--3--2--0---|
E-0-2--2-2-2-2-2-3\2--2-2-2-2-2-0-2--2-2-3\2--2-2------------|


    h  [---PM---]     [---PM---]         
E------------------------------------------------------------|
B------------------------------------------------------------|
G------------------------------------------------------------|
D----------------------------------------9-------(9)---------|
A-4-4--4-4-4-4-4-5\4--4-4-4-4-4-4-2--2---7-------(7)---------|
E-0-2--2-2-2-2-2-3\2--2-2-2-2-2-2-0--0---0-------(0)---------|

Chorus
                             
E--------------------------------------|
B--------------------------------------|
G--------------------------------------|
D-5/7------8\7------5/7/8\7--5/7/8\7---|
A-5/7------8\7------5/7/8\7--5/7/8\7---|
E-3/5------6\5------3/5/6\5--3/5/6\5---| Rpt 4 X

Lead at end of chorus
                ~~~~~~~
E----------------------|
B-8---10--11--10-------|
G-10b-12b-13b-12b-11---|
D----------------------|
A----------------------|
E----------------------|

Rpt verse and chorus

Backing for solo

[---------PM------------]
E------------------------------|
B------------------------------|
G------------------------------|
D-------5-----4-----2-----5-5--|
A-2-2-2---2-2---2-2---2-2-3-3--|
E------------------------------|Rpt 4 X

[---------PM------------]
E------------------------------|
B------------------------------|
G------------------------------|
D------------------------------|
A-------------------------5-5--|
E-2-2-2-2-2-2-2-2-2-2-2-2-3-3--|Rpt 3 X

E--------------|
B--------------|
G--------------|
D----6--11-9---|
A-4--4--9--6---|
E-2------------|

[------------------------PM------------------------]   
E-------------------------------------------------------------------|
B-------------------------------------------------------------------|
G-------------------------------------------------------------------|
D-------------------------------------------------------------------|
A-4-4-4-4-4-4-4-4-4-4-4-4-4-4-4-4-4-4-4-4-4-4-4-4-4-4-5p4---4-5-7p4-|
E---------------------------------------------------------7---------|
[------------------------PM------------------------]
E-------------------------------------------------------------------|
B-------------------------------------------------------------------|
G-------------------------------------------------------------------|
D-------------------------------------------------------------------|
A-4-4-4-4-4-4-4-4-4-4-4-4-4-4-4-4-4-4-4-4-4-4-4-4-4-----------5p4p2-|
E---------------------------------------------------4/5p4p2-4-------|
                                             Rpt these 2 riffs

[--------PM---------]
E--------------------------|
B--------------------------|
G-------3-----2------------|
D-------3-----2-------3-3--|
A-0-0-0-0-0-0-0-0-0-0-1-1--|
E--------------------------|Rpt 2 X

E----------------------|
B----------------------|
G----------------------|
D-2--3--6--3--2--------|
A-0--1--4--1--0--5--2--|
E----------------3--0--|

E----------------------------------------------------|
B----------------------------------------------------|
G----------------------------------------------------|
D----------------------------------4-----4--7-/10\9--|
A-3---2---3---2--3--2--3--2--3--6--2--6--2--5-/8-\7--|
E-1---0---1---0--1--0--1--0--1--4-----4--------------|

Descending scale at end of solo.
E--------------------|
B--------------------|
G--------------------|
D-/10\9\-7--9\-5\-4--|
A-/8-\7\-5--7\-3\-2--|
E--------------------|


E----------------------|
B----------------------|
G---2---3--2----2-3-2--|
D---2---3--2----2-3-2--|
A---0--(0)-0----0---0--|
E-3----------3---------| Rpt 4 X

Rpt Verse and chorus

Backing for 2nd guitar solo.

[---------PM------------]
E------------------------------|
B------------------------------|
G------------------------------|
D------------------------------|
A-------------------------5-5--|
E-2-2-2-2-2-2-2-2-2-2-2-2-3-3--| Rpt 8 X



Ending
  Guitar 1
E[--------------------------|
B[--------------------------|
G[--------------------------|
D[--------------------------|
A[-2--4---5-\4--2--4-/5-\4--|
E[-0--2---3-\2--0--2-/3-\2--|
[
[Guitar 2
E[--------------------------|
B[--------------------------|
G[--------------------------|
D[-9--11--12\11-9--11/12\11-|
A[-7--9---10\9--7--9-/10\9--|
E[--------------------------| Rpt 4 X

E-------------------------------|
B-------------------------------|
G-------------------------------|
D-4------(4)--------4\----------|
A-4------(4)--------4\----------|
E-2------(2)--------2\----------|
Komentari
Još nema komentara